Guitar Tabs, Chords and Lyrics
Server problems seems to be fixed. Chordie has been experiencing problems with songs disappearing. These issues now seems to be fixed, but still verifying the fix. If you find anything strange, please email admin@chordie.com.


Adeste Infidelis   Cryptopsy

 
 |---------||------------------------------------||
 |---------||o----------------------------------o||
 |---------||------------------------------------||
 |-3-2-----||---------------------------3-2------||
 |-----5-4-||o-3333----5555----4444---------5-4-o||
 |---------||------2222----1111----3333----------||

 


 | . . . . | . . . . |


 

 
 |---------||------------------------------------||
 |---------||o----------------------------------o||
 |---------||------------------------------------||
 |---------||---------------------------3-2------||
 |---------||o-3333----5555----4444---------5-4-o||
 |---------||------2222----1111----3333----------||

 


 . . . .


 


 [Outro A] 


 

 
 |------------------------------|
 |---------------------6666-----|
 |---------555444444333----3333-|
 |------------------------------|
 |-3333-------------------------|
 |-----2222---------------------|

 


 | |


 

 
 |------------------------------|
 |---------------------6666-----|
 |---------555444444333----3333-|
 |------------------------------|
 |------------------------------|
 |------------------------------|

 


 


 [Riff 2 (x2)] 


 

 
 ||-------------------------------|------------------------------|-
 ||o---------------------6666-----|---------------------6666-----|-
 ||----------555444444333----3333-|---------555444444333----3333-|-
 ||-------------------------------|------------------------------|-
 ||o-33332222---------------------|-3333-------------------------|-
 ||-------------------------------|-----2222---------------------|-
 -|------------------------------|-------------------------------||
 -|---------------------6666-----|------------------------------o||
 -|---------555444444333----3333-|---------555444444333----------||
 -|------------------------------|---------------------44443333--||
 -|-3333-------------------------|-33332222---------------------o||
 -|-----2222---------------------|-------------------------------||

 


 


 [Riff 3a (x4)] 


 

 
 ||------------------------------------||
 ||o----------------------------------o||
 ||----------5555----7777--------------||
 ||--7777--------4444----66665555------||
 ||o-----6666--------------------6666-o||
 ||------------------------------------||

 


 


 [Outro B] 


 

 
 |----------------------------------|
 |----------------------------------|
 |-5555--------------------55554444-|
 |-----4444-------------------------|
 |---------44443333-----------------|
 |-----------------33332222---------|

 


 


 [Riff 4a (x3)] 


 

 
 ||------------------------------------||
 ||o----------------------------------o||
 ||--------------------------55554444--||
 ||--55554444--------------------------||
 ||o---------44443333-----------------o||
 ||------------------33332222----------||

 


 


 [Outro C1] 


 

 
 |----------------------------------|
 |----------------------------------|
 |----------------------------------|
 |--------------------------3-2-----|
 |-3-------5555----4444---------5-4-|
 |-1---2222----1111----3333---------|

 


 


 [RIFF 1 (x2)] 


 


 [Outro C2] 


 

 
 |--------------------------------------|
 |--------------------------------------|
 |--------------------------5-----------|
 |----------------------------4-5-4-----|
 |-3333----5555----4444-------------2---|
 |-----2222----1111----3333-------------|

 


 


 [Riff 5 (x5)] [Riff 6 (x8)] 


 

 
 ||---------------------||----||---------------------||
 ||o-------------------o||----||o-------------------o||
 ||---------------------||----||---------------------||
 ||---------------------||----||--6-----------7------||
 ||o-4--5--3--5--5--5--o||-4--||o-4--5--6--5--5--3--o||
 ||--2--5--1--5--3--5---||-2--||-----3--4--3-----1---||

 


 . . .


 


 [Outro D /under bass solo/] 


 

 
 |-------------------|---------------------|-------------------------|
 |-------------------|---------------------|-------------------------|
 |-------------------|---------------------|-------------------------|
 |-6-----------------|---------6-----------|-7-----5-----------7-----|
 |-4------------2----|---------4--5--6--5--|-5--3--3--4--5--4--5--3--|
 |--------------0----|------------3--4--3--|----1-----2--3--2-----1--|

 


 . . . . . . . . . . . . .


 


 [Riff 7 (x2)] [Riff 8 (x4)] 


 

 
 ||--------------------||-||----------------------------||
 ||o------------------o||-||o--------------------------o||
 ||--------------------||-||----------7777----6666------||
 ||--6-----------7-----||-||--33334444----5555----4444--||
 ||o-4--5--6--5--5--3-o||-||o--------------------------o||
 ||-----3--4--3-----1--||-||----------------------------||

 


 


 [Riff 9 (x2)] 


 

 
 ||--------------------||
 ||o------------------o||
 ||--------------------||
 ||--------7-----6-----||
 ||o-3--4--5--5--4--4-o||
 ||--1--2-----3-----2--||

 


 


 [Riff 10 (x2)] 


 

 
 ||----------------------------||
 ||o--------------------------o||
 ||--5555----7777----6666------||
 ||------4444----5555----3333--||
 ||o--------------------------o||
 ||----------------------------||

 


 


 [RIFF 9 (x2)] [RIFF 8 (x4)] 


 


 [Riff 11 (x8)] [Riff 12 (x6)] 


 

 
 ||-------------------||-||--------------------|-------------------||
 ||o-----------------o||-||o-------------------|------------------o||
 ||-------------------||-||--5--4--6--5--8--6--|-3--5--4--6--5--7--||
 ||-----7\5----7--6---||-||--3--2--4--3--6--4--|-1--3--2--4--3--5--||
 ||o-5--5\3----5--4--o||-||o-------------------|------------------o||
 ||--3------0---------||-||--------------------|-------------------||

 


 . .


 


 [RIFF 11 (x3)] 


 


 [Outro E] 


 

 
 |-----------------|
 |-----------------|
 |-----------------|
 |----7\5----7\----|
 |-5--5\3----5\----|
 |-3------0--------|

 


 . .


 


 /Break/


 


 [Riff 13a] 


 

 
 |-----------------------------------|----------------------------------|-
 |-----------------------------------|----------------------------------|-
 |-----------------------------------|----------------------------------|-
 |-----------------------------------|----------------------------------|-
 |-55-5-5-5---------------------3333-|-22222222222222223333222233336666-|-
 |-33-3-3-3-33333333444433334444-----|----------------------------------|-

 


 .. . . . ........................ ................................


 


 

 
 -|----------------------------------|----------------------------------|
 -|----------------------------------|----------------------------------|
 -|----------------------------------|----------------------------------|
 -|----------------------------------|---------------------6--7--5\-----|
 -|-55556666555555558888666655553333-|-5h6p5h6p5h....------4--5--3\--6--|
 -|----------------------------------|-------------------------------4--|

 


 ................................


 


 [Riff 13b (x2)] 


 

 
 ||-----------------------------------|----------------------------------|-
 ||o----------------------------------|----------------------------------|-
 ||-----------------------------------|----------------------------------|-
 ||-----------------------------------|----------------------------------|-
 ||o-5---------------------------3333-|-22222222222222223333222233336666-|-
 ||--3-33333333333333444433334444-----|----------------------------------|-

 


 .............................. ................................


 


 

 
 -|----------------------------------|-----------------------------------||
 -|----------------------------------|----------------------------------o||
 -|----------------------------------|-----------------------------------||
 -|----------------------------------|---------------------6--7--5\------||
 -|-55556666555555558888666655553333-|-5h6p5h6p5h....------4--5--3\--6--o||
 -|----------------------------------|-------------------------------4---||

 


 ................................


 


 [Outro F] 


 

 
 |----------------------------------|----------------------------------|-
 |----------------------------------|----------------------------------|-
 |----------------------------------|----------------------------------|-
 |----------------------------------|----------------------------------|-
 |-5---------------------------3333-|-22222222222222223333222233336666-|-
 |-3-33333333333333444433334444-----|----------------------------------|-

 


 .............................. ................................


 


 

 
 -|----------------------------------|----------------------------------|
 -|----------------------------------|----------------------------------|
 -|----------------------------------|----------------------------------|
 -|----------------------------------|----------------------------------|

 


 -|-55556666555555558888666655553333-|-55555555555555558888666655558888-|


 

 
 -|----------------------------------|----------------------------------|

 


 ................................ ................................


 


 [Riff 14 (x4)] 


 

 
 ||---------------------------||
 ||o-------------------------o||
 ||---------------------------||
 ||--------------4------------||
 ||o-3--6--5--3--2--3--5--6--o||
 ||--1--4--3--1-----1--3--4---||

 


 


 [Riff 15 (x4)] 


 

 
 ||------------------------------------||
 ||o----------------------------------o||
 ||------------------------------------||
 ||------------------------------------||
 ||o-3333555566665555333355553333-----o||
 ||------------------------------4444--||

 


 


 [RIFF 14 (x4)] [RIFF 15 (x2)] 


 


 [Outro G] 


 

 
 |-------------------------------|-------------------------------------|-
 |-------------------------------|-------------------------------------|-
 |-------------------------------|------------------------333333333333-|-
 |-0-----------------------------|-------------------------------------|-
 |-3----3-3-3-3-5555555566668888-|-6---------------5-------------------|-
 |-4----4-4-4-4------------------|-3--333333333333-3--3333-------------|-

 


 | . . . . ................ | ............ .... |


 

 
 |-------------------------------|-------------------------------------|-
 |-------------------------------|-------------------------------------|-
 |-------------------------------|------------------------333333333333-|-
 |-0-----------------------------|-------------------------------------|-
 |-3-----------------------------|-6---------------5-------------------|-
 |-4-----------------------------|-3--333333333333-3--3333-------------|-

 


 ............ ....


 


 

 
 -|----------------------------------|
 -|----------------------------------|
 -|----------------------------------|
 -|-0--------------------------------|
 -|-3--3-3-3-3-3-3-555555556666-6----|
 -|-4--4-4-4-4-4-4--------------4----|

 


 | . . . . . . ............ . |


 

 
 -|----------------------------------|
 -|----------------------------------|
 -|----------------------------------|
 -|-0--------------------------------|
 -|-3--3-3-3-3-3-3-555555556666-6----|
 -|-4--4-4-4-4-4-4--------------4----|

 


 . . . . . . ............ .


 


 [Riff 16 (x9)] 


 

 
 ||------------------------------------------||
 ||o----------------------------------------o||
 ||------------------------------------------||
 ||------------------------------------------||
 ||o-5-----------3-------3-6-5p4p3-------6--o||
 ||--3--33446666---4h6p4-----------3p2p1-4---||

 


 


 [Riff 15] 


 

 
 |--------------------------------------------------------------[x2]-|-
 |-------------------------------------------------------------------|-
 |------------------------------------------------------333333333333-|-
 |-0-----------------------------------------------------------------|-
 |-3----3-3-3-3-5555555566668888-6---------------5-------------------|-
 |-4----4-4-4-4------------------3--333333333333-3--3333-------------|-

 


 . . . . ................ ............ ....


 


 

 
 -|----------------------------------------------------------------------|-
 -|----------------------------------------------------------------------|-
 -|---------------------------------------------------------333333333333-|-
 -|-0--------------------------------------------------------------------|-
 -|-3---3-3---------5555555566668888-6---------------5-------------------|-
 -|-4---4-4-44444444-----------------3--333333333333-3--3333-------------|-

 


 . . . ........................ ............ ....


 


 

 
 -|----------------------------------|
 -|----------------------------------|
 -|----------------------------------|
 -|-0--------------------------------|
 -|-3---3-3---------555555556666-8-8-|
 -|-4---4-4-44444444-------------6-6-|

 


 . . . ...................... .


 


 [Riff 4b] 


 

 
 |-----------------------------[x3]-|----------------------------------|
 |----------------------------------|----------------------------------|
 |-5555--------------------55554444-|-5555-----------------------------|
 |-----4444-------------------------|-----4444-------------------------|
 |---------44443333-----------------|---------44443333--------33332222-|
 |-----------------33332222---------|-----------------33332222---------|

 


 


 [RIFF 2] 


 


 [Riff 3b (x9)] 


 

 
 ||---------------------------------------------------||
 ||o-------------^-----------^-----------------------o||
 ||--^-----------5~----^-----7~----^-----^------------||
 ||--7~----^-----------4~----------6~----5~----^------||
 ||o-------6~----------------------------------6~----o||
 ||---------------------------------------------------||

 


 


 [Ending] 


 

 
 |-------------------------|
 |-------------------------|
 |-^-----------------------|
 |-7~---^------------------|
 |------6~--3--------------|
 |----------4--------------|


Important: The song above is NOT stored on the Chordie server. The original song is hosted at www.guitaretab.com. Chordie works as a search engine and provides on-the-fly formatting. Chordie does not index songs against artists'/composers' will. To remove this song please click here.

This song is displayed as text-only. Transposing and tuning is only available for chordpro-songs.
Rate #1 of 2 versions

Login - add to songbook

SHARE PAGE  




You need to log in to post comments