Guitar Tabs, Chords and Lyrics
Server problems seems to be fixed. Chordie has been experiencing problems with songs disappearing. These issues now seems to be fixed, but still verifying the fix. If you find anything strange, please email admin@chordie.com.


Love Natural  Crystal Fighters

One of my most favourite song from their new album "Cave Rave" (2013)
Chords:
[B] [E] [G#m] [F#]  
 
 E|-7-|-7-|-4-|-2-|
 B|-7-|-9-|-4-|-2-|
 G|-8-|-9-|-4-|-3-|
 D|-9-|-9-|-6-|-4-|
 A|-9-|-7-|-6-|-4-|
 E|-7-|---|-4-|-2-|

Intro: B E
 
 E|----11-15-11-----------11-15-11-----------11-15-11----------------------|
 B|-12----------15-12--12----------15-12--12----------15-12----------------|
 G|---------------------------------------------------------13-11-13-11-13-|
 D|------------------------------------------------------------------------|
 A|------------------------------------------------------------------------|
 E|------------------------------------------------------------------------|
 E|----11-15-11-----------11-15-11-----------11-15-11----------------------|
 B|-12----------15-12--12----------15-12--12----------15-12----------------|
 G|---------------------------------------------------------13-11-13-11-13-|
 D|------------------------------------------------------------------------|
 A|------------------------------------------------------------------------|
 E|------------------------------------------------------------------------|

[B]Everyone, anyone who want to hear
Move in a little cl[E]oser, let me tell you about
A love natural
[B]Oh that love actual
Love that you just can't help [E]feeling
When feelings with meanings keep on ap[B]pearing
And it's almost midnight, the time is coming [E]up
The time is getting closer, the time is almost [B]here
Life is upon us and the time for love is [E]here and now
B(strum just once) B E
When I look at you, oh I feel my heart
E E E E ...
Oh, I feel real love deep inside
[B]Oh, love natural, I can't believe how you do it to me
You [E]make me feel, oh how you say, feel so special
[B]Oh, love natural, I can't believe how you do it to me
You [E]make me feel, oh how you say, feel so special
Interlude B E //
 
 E|----11-15-11-----------11-15-11-----------11-15-11----------------------|
 B|-12----------15-12--12----------15-12--12----------15-12----------------|
 G|---------------------------------------------------------13-11-13-11-13-|
 D|------------------------------------------------------------------------|
 A|------------------------------------------------------------------------|
 E|------------------------------------------------------------------------|

[B]Let me tell you something, oh
[E]Something you may not believe, yeah
[B]Oh, let me talk about this feeling
In[E]side that's happening to me, oh
[B]Oh yeah it's almost our time, the feeling's coming [E]up
The moment to get closer, the moment's almost [B]here
Life is upon us and the time for [E]love is here and now
B(strum just once) B E
When I look at you, oh I feel my heart
E E E E ...
Oh, I feel real love deep inside
[B]Oh, love natural, I can't believe how you do it to me
You [E]make me feel, oh how you say, feel so special
[B]Oh, love natural, I can't believe how you do it to me
You [E]make me feel, oh how you say, feel so special
[B]Oh, love natural, I can't believe how you do it to me
You [E]make me feel, oh how you say, feel so special
[B]Oh, love natural, I can't believe how you do it to me
You [E]make me feel, oh how you say, feel so special
[G#m]All the [F#]way, yeah we're moving, [B]oh[E]
Gonna find our [G#m]love to[F#]day
The love go [B]on and [E]on
And we're climbin' all the [G#m]way to the top of the [F#]highest mountain
[B]Flyin' through the skies we've never [E]seen before
And we're [G#m]divin' to the depths of the [F#]deepest ocean
[B]Sailin' all the seas we've never [E]seen before (seen before, seen before...)
(Chorus x4)
[B]Oh, love natural, I can't believe how you do it to me
You [E]make me feel, oh how you say, feel so special
[B]Oh, love natural, I can't believe how you do it to me
You [E]make me feel, oh how you say, feel so special

Important: The song above is NOT stored on the Chordie server. The original song is hosted at www.guitaretab.com. Chordie works as a search engine and provides on-the-fly formatting. Chordie does not index songs against artists'/composers' will. To remove this song please click here.

Text color:
Chord color:
Chord grids: 
Font size:    
Page size: 

B E F# G#m
Rate #1 of 2 versions

Jango Player

Login - add to songbook

SHARE PAGE  




You need to log in to post comments