Guitar Tabs, Chords and Lyrics
Major upgrade!! After one year development the new version of Chordie is now online! Please give feedback.


Treasure  The Cure

Well, I've placed the Chord symbols over the syllable that should be the start of
the chord! I hope you'll have fun!
Verse:
She whis[D]pers "please remember me[Bm]
when I am[D] gone from here"[Bm]
She whi[D]spers "please remember me[Bm]
but not[D] with tears"[Bm]
Chorus:
"Reme[G]mber I was always true[A]
Reme[F#m]mber that I always tried[Bm]
Reme[G]mber I loved only you[A]
Reme[F#m]mber me and smile...[Bm]
For it's be[G]tter to forget[A]
Than to remember me and cry..."[D]
[Bm] [D] [Bm] [D] [Bm] [D] [Bm]  
Solo:
 
 e ------------------|
 H-------------------|
 G---------------2---|
 D-0-0-0-0-2-4-------|
 A-------------------|
 E-------------------|
 e ------------------|
 H-------------------|
 G-------------------|
 D-0-0-0-0-2-4---0---|
 A-------------------|
 E-------------------|
 e ----------------------------------------|
 H---------------------3-----3--2----------|
 G---------------4--2--------------2-------|
 D-0-0-0-0-2-4------------------------4----|
 A-----------------------------------------|
 E-----------------------------------------|
 e ------------------|
 H-------------------|
 G---------------2---|
 D-0-0-0-0-2-4-------|
 A-------------------|
 E-------------------|
 e ------------------|
 H-------------------|
 G-------------------|
 D-0-0-0-0-2-4---0---|
 A-------------------|
 E-------------------|
 e -----------------------------------------|
 H---------------------3-----3--5--7--5-7---|
 G---------------4--2-----------------------|
 D-0-0-0-0-2-4------------------------------|
 A------------------------------------------|
 E------------------------------------------|

Chorus:
"Reme[G]mber I was always true[A]
Reme[F#m]mber that I always tried[Bm]
Reme[G]mber I loved only you[A]
Reme[F#m]mber me and smile...[Bm]
For it's be[G]tter to forget[A]
Than to remember me and cry..."[D]

Important: The song above is NOT stored on the Chordie server. The original song is hosted at www.guitaretab.com. Chordie works as a search engine and provides on-the-fly formatting. Chordie does not index songs against artists'/composers' will. To remove this song please click here.

Text color:
Chord color:
Chord grids: 
Font size:    
Page size: 

A Bm D F#m G
Rate #1 of 3 versions

Jango Player

Login - add to songbook

SHARE PAGE  




You need to log in to post comments