Guitar Tabs, Chords and Lyrics
Server problems seems to be fixed. Chordie has been experiencing problems with songs disappearing. These issues now seems to be fixed, but still verifying the fix. If you find anything strange, please email admin@chordie.com.


Faith  The Cure

????????????????????????????????????????????????????????????????????????????
??THE COMPLETE FAITH?S CHORD CHART ??
compilated by: graph_sas
Words and music by: The Cure
From the recognized 1981?s album ?Faith? from The Cure
????????????????????????????????????????????????????????????????????????????
??ANNO DOMINI: 2009, April 13th??
Please contribute to this compilation by sending corrections and or
additions to me: graph_sas@hotmail.com Thanks! ^^
AMENDMENT INTENTION: The following compilation of chords is personal and free on the
published by Fiction Records in 1982 for The Cure and only with didactic and philanthropic
All songs are copyrighted by the publishers and these tabs are property of his respective authors.
The Tabbers are:
graph_sas [tabs: 1,2,3,4,6,7] graph_sas@hotmail.com
Sir Douglas [tab 2]
Winston Campbell [tab 3]
Gallagher2006 [tab 5,8]
Unregistered [tab 6] (your bass tab is great!! Contact with me!)
The Songs are:
1. The Holy Hour
2. Primary
3. Other Voices
4. All Cats Are Grey
5. The Funeral Party
6. Doubt
7. The Drowning Man
8. Faith
NOTE OF THE AUTHOR: For me, this is really the best album of The Cure and one of the
of all the times. Thanks a lot Robert, Simon and Lol!!
????????????????????????????????????????????????????????????????????????????
?THE HOLY HOUR?
Words by: R.Smith Music by: The Cure published by: Fiction Records, 1981
Tabbed by: graph_sas
Bass tab:
Intro / Fig.1
 
 G |----------|--3-3-1-1--|---------|------------||
 D |----------|-----------|---------|--3-3-2-2---||
 A |------0---|-----------|---------|------------||
 E |--3-3-----|-----------|--3-3-0--|------------||

Fig.2 Bridge
 
 G |--------|------------ |---------|-----------||
 D |-5-5-3--|--3-3-2-2--- |--3-3-2--|--2-5-5----||
 A |--------|------------ |---------|--------0--||
 E |--------|------------ |---------|-----------||

Intro Guitar: Am Em (repeat all the chords 4 times)
[Am]I kn[Em]eel and wait in[Am] silen[Em]ce
[Am]As one by one [Em]the people s[Am]lip a[Em]way
[Am]Into [Em]the night
[Am]The quite a[Em]nd empty bodies
[Am]Kiss the ground be[Em]fore they pray
[Am]Kiss the ground
[Em]And slip aw[F]ay
Am Em (x4)
[Am]I si[Em]t and listen[Am] dreamlessl[Em]y
[Am]A promise of s[Em]alvation makes me sta[Am]y[Em]
[Am]Then [Em]look at your face
[Am]And feel my hea[Em]rt pushed in
[Am]As all around th[Em]e children play
[Am]The games they tired[Em] of yeste[F]rday
[F]They play
[Am]They play
Am Em (x4)
[Am]I stan[Em]d and hear [Am]my voice
[Em]Cry out
[Am]A wordless scream a[Em]t ancient pow[Am]er[Em]
[Am]It br[Em]eaks against stone
[Am]I softly leav[Em]e you crying
[Am]I cannot hold wha[Em]t you devour
[Am]The sacrifice of p[Em]enance
F the last chord is: Am
In the holy hour
????????????????????????????????????????????????????????????????????????????
?PRIMARY?
Words by: R.Smith Music by: The Cure published by: Fiction Records, 1981
Tabbed by: Sir Douglas & graph_sas
Intro (played by guitar 1)
=====
 
 G:X---X---X---X---|
 D:X---X---X---X-0-|
 A:X---X---X---X---|
 E:X---X---X---X---|

2nd Intro (played by both guitars) (x4)
=========
 
 G:----------------|----------------|----------------|7-7-7-6--------|
 D:--------------2-|2-2-2-2-2-2-2-2-|--------------2-|7-7-7-7--------|
 A:2-2-2-2-2-2-2-0-|0-0-0-0-0-0-0-0-|2-2-2-2-2-2-2-0-|---------------|
 E:0-0-0-0-0-0-0---|----------------|0-0-0-0-0-0-0---|---------------|

Chorus (x2)
======
Guitar 2 plays....
 
 G:----------------|----------------|----------------|7-7-7-6-6-6-6-6-|
 D:----------------|----------------|----------------|7-7-7-7-7-7-7-7-|
 A:----------------|0-0-0-0-0-0-0-0-|----------------|----------------|
 E:0-0-0-0-0-0-0-0-|----------------|0-0-0-0-0-0-0-0-|----------------|

Guitar 1 plays....
 
 G:----------------|------2-2-2-2-2-|----------------|2-2-2-2-2-2-2-2-|
 D:2-2-2-4-4-4-4-4-|2-2-2-2-2-2-2-2-|2-2-2-4-4-4-4-4-|2-2-2-2-2-2-2-2-|
 A:2-2-2-2-2-2-2-2-|2-2-2-----------|2-2-2-2-2-2-2-2-|----------------|
 E:----------------|----------------|----------------|----------------|

[Em] The innocence of [D] sleeping children
[Em] Dressed in white
And [D] slowly [A] dreaming
[Em] Stops all time [D, Em, D, A]
[Em] Slow my steps and [D] start to blur
So [Em] many years have [D] filled my [A] heart
I [Em] never thought I'd [D] say those [Em] words [D, A]
Pre Chorus (Played by Guitar 2) (x2)
==========
 
 G:----------------|2-2-2-2-2-2-2-2-|----------------|7-7-7-6-6-6-6-6-|
 D:----------------|0-0-0-0-0-0-0-0-|----------------|7-7-7-7-7-7-7-7-|
 A:2-2-2-2-2-2-2-2-|----------------|2-2-2-2-2-2-2-2-|----------------|
 E:0-0-0-0-0-0-0-0-|----------------|0-0-0-0-0-0-0-0-|----------------|

The [Em] further we go
And [D] older we grow
The [Em] more we know ...
The [D] less we [A] show ... (x2)
Chorus (x2)
======
Guitar 2 plays....
 
 G:----------------|----------------|----------------|7-7-7-6-6-6-6-6-|
 D:----------------|----------------|----------------|7-7-7-7-7-7-7-7-|
 A:----------------|0-0-0-0-0-0-0-0-|----------------|----------------|
 E:0-0-0-0-0-0-0-0-|----------------|0-0-0-0-0-0-0-0-|----------------|

Guitar 1 plays....
 
 G:----------------|------2-2-2-2-2-|----------------|2-2-2-2-2-2-2-2-|
 D:2-2-2-4-4-4-4-4-|2-2-2-2-2-2-2-2-|2-2-2-4-4-4-4-4-|2-2-2-2-2-2-2-2-|
 A:2-2-2-2-2-2-2-2-|2-2-2-----------|2-2-2-2-2-2-2-2-|----------------|
 E:----------------|----------------|----------------|----------------|

The [Em] very first time I [D] saw your face
I [Em] thought of a song
And [D] quickly [A] changed the [Em] tune [D,
D, A]
The [Em] very first time I [D] touched your skin
I [Em] thought of a story
And [D] rushed to [A] reach the [Em] end too soon [D, Em, D, A]
Coda 1 (dunno if I should call it this but.. ah who cares?)
====== (played by guitar 2) (x1)
 
 G:----------------|----------------|----------------|----------------|
 D:5-5-5-5-5-5-5-5-|7-7-7-7-7-7-7-7-|5-5-5-5-5-5-5-5-|7-7-7-7-7-7-7-7-|
 A:3-3-3-3-3-3-3-3-|5-5-5-5-5-5-5-5-|3-3-3-3-3-3-3-3-|7-7-7-7-7-7-7-7-|
 E:----------------|----------------|----------------|----------------|

[C] Oh [D] remember
[C] Oh [D] Please
Don't [Em] change [Em, D, Em, D,
x2
2nd Intro (played by both guitars) (x2)
=========
 
 G:----------------|----------------|----------------|7-7-7-6--------|
 D:--------------2-|2-2-2-2-2-2-2-2-|--------------2-|7-7-7-7--------|
 A:2-2-2-2-2-2-2-0-|0-0-0-0-0-0-0-0-|2-2-2-2-2-2-2-0-|---------------|
 E:0-0-0-0-0-0-0---|----------------|0-0-0-0-0-0-0---|---------------|

Chorus (x2)
======
Guitar 2 plays....
 
 G:----------------|----------------|----------------|7-7-7-6-6-6-6-6-|
 D:----------------|----------------|----------------|7-7-7-7-7-7-7-7-|
 A:----------------|0-0-0-0-0-0-0-0-|----------------|----------------|
 E:0-0-0-0-0-0-0-0-|----------------|0-0-0-0-0-0-0-0-|----------------|

Guitar 1 plays....
 
 G:----------------|------2-2-2-2-2-|----------------|2-2-2-2-2-2-2-2-|
 D:2-2-2-4-4-4-4-4-|2-2-2-2-2-2-2-2-|2-2-2-4-4-4-4-4-|2-2-2-2-2-2-2-2-|
 A:2-2-2-2-2-2-2-2-|2-2-2-----------|2-2-2-2-2-2-2-2-|----------------|
 E:----------------|----------------|----------------|----------------|

[Em] So the fall came
[D] Thirteen years
A [Em] shiny ring
And [D] how I could for[Em]get your name [D, Em, D, A]
The [Em] air no longer [D] in my throat
[Em] Another perfect [D] lie is choked
[Em] But it al[D]ways [A]feels [Em]the same [D, A]
Coda 2 (this is the proper Coda... or so the book says)
====== (oooh.... loads a high notes)
(Played by guitar 2) (x1)
 
 G:------------------------|------------------------|
 D:12-12-12-12-12-12-12-12-|14-14-14-14-14-14-14-14-|
 A:10-10-10-10-10-10-10-10-|12-12-12-12-12-12-12-12-|
 E:------------------------|------------------------| play this 3 times

then.....
 
 G:------------------------|------------------------|
 D:10-10-10-10-10-10-10-10-|10-10-10-10-17-17-17-17-|
 A:8--8--8--8--8--8--8--8--|8--8--8--8--15-15-15-15-|
 E:------------------------|------------------------|
 G:------------------------|------------------------|
 D:16-16-16-16-16-16-16-16-|19-19-19-19-19-19-19-19-|
 A:14-14-14-14-14-14-14-14-|17-17-17-17-17-17-17-17-|
 E:------------------------|------------------------|

[C] So they [D]close together
[C] Dressed in [D]red and yellow
[C] Inno[D]cent forever
[F] Sleeping children in their blue soft [D] rooms
Still [Em]dream
Bit after Coda2 (x4)
===============
Guitar 2 plays...
 
 G:----------------|2-2-2-2-2-2-2-2-|----------------|7-7-7-6-6-6-6-6-|
 D:----------------|0-0-0-0-0-0-0-0-|----------------|7-7-7-7-7-7-7-7-|
 A:2-2-2-2-2-2-2-2-|----------------|2-2-2-2-2-2-2-2-|----------------|
 E:0-0-0-0-0-0-0-0-|----------------|0-0-0-0-0-0-0-0-|----------------|

Guitar 1 plays...
 
 G:----------------|7-7-7-7---------|----------------|7-7-7-7---------|
 D:----------------|9-9-9-9---------|----------------|9-9-9-9---------|
 A:----------------|8-8-8-8---------|----------------|8-8-8-8---------|
 E:----------------|----------------|----------------|----------------|

The [Em] further we go
And [D] older we grow
The [Em] more we know ...
The [D] less we [A] show ... (x2)
FINAL CHORUS (x4)
============
Both Guitars play......
 
 G:----------------|------2-2-2-2-2-|----------------|2-2-2-2-2-2-2-2-|
 D:2-2-2-4-4-4-4-4-|2-2-2-2-2-2-2-2-|2-2-2-4-4-4-4-4-|2-2-2-2-2-2-2-2-|
 A:2-2-2-2-2-2-2-2-|2-2-2-----------|2-2-2-2-2-2-2-2-|----------------|
 E:----------------|----------------|----------------|----------------|

????????????????????????????????????????????????????????????????????????????
?OTHER VOICES?
Words by: R.Smith Music by: The Cure published by: Fiction Records, 1981
Tabbed by: Winston Campbell & graph_sas
The Tab part tabbed by: Winston Campbell [jieuryli@eden.rutgers.edu]
After waiting such a long time for some one to transcribe this song, I just
decided to figure it out by myself. I tried doing that months ago and
failed. But this time around it was not as hard as I thought it was.
Basically (maybe skipping notes), but basically this is how I play it:
The strange intro is something like this:
 
 e -------------0--0------------|
 B -0--0--7-----5--5--------0---|
 G -4--4--4-----------6-----4---|
 D -----------------------------|
 A -----------------------------|
 E -----------------------------|

The bass riff starts out as:
Riff 1:
 
 e-------||-----------------|---------------------||
 G ------||-----------------|---------------------||
 D -4----||----------0------|---------------------||
 A ----0-||-2--2-2-2--------|-------------------0-||
 E ------||---------------0-|-2--2-2-2-3--2--0----||

The double lines means that you must repeat the riff ending and starting at
the double lines (you are not supposed to play those first two intro notes
again). This riff (within the double lines) is repeated seven times, then
you play:
 
 e------------------|---------------------|-----------------|
 G -----------------|---------------------|-----------------|
 D ----------0------|-------------------0-|-2--2-2-2--------|
 A -2--2-2-2--------|---------------------|---------------2-|
 E ---------------0-|-2--2-2-2-3--2--0----|----------3------|
 e----------------------|-----------------|---------------------|
 G ---------------------|-----------------|---------------------|
 D -------------------0-|-2--2-2-2--------|---------------------|
 A -4--4-4-4-5--4--2----|---------------2-|-4--4-4-4-5--4--2--0-|
 E ---------------------|----------3------|---------------------|

You play Riff 1 again throughout the verse. Now, this is the part that may
not be accurate: the guitar tablature. I am sure I am pretty close, this is
how I play the guitar part during the verse:
 
 e ----------------------|---------------------|
 B ----------------------|-2--2-2-2/3--3--3--3-|
 G -4--4-4-4/7--6-6--6-x-|-3--3-3-3/4--4--4--4-|
 D -4--4-4-4/7--7-7--7-x-|-4--4-4-4/5--5--5--5-|
 A ----------------------|---------------------|
 E ----------------------|---------------------|

If you listen to how the guitar is played, you will get the idea. Now, this
song, believe it or not, has two choruses. The first chorus comes after the
first verse (obviously). The bass for it (and I am not perfect on this) is:
Chorus 1 Bass Riff:
 
 e ||--------------|-------------|-----------------|-----------------||
 G ||--------------|-------------|-----------------|-----------------||
 D ||--------------|-------------|-----------------|-----------------||
 A ||--------------|-------------|-----------------|-----------------||
 E ||-2----2--2--2-|-0--0---0--0-|-2--2-2-2-3------|-2--2-2-2-3------||

This is played four times. It is good to slip that A note for the last time
when going back into Riff 1 for the second verse. The guitar part for Riff 2
is:
Guitar Riff 1A:
 
 e ||--------------|-------------|---------------------|-------------------||
 B ||-2--2--2--2---|-0-0-0--0--0-|-7--7-7-7-8\7-7-7--7-|-7--7-7-7-8\7-7-7--||
 G ||-3--3--3--3---|-0---0--0--0-|-6--6-6-6-7\6-6-6--6-|-6--6-6-6-7\6-6-6--||
 D ||-4--4---------|-2------2----|---------------------|-------------------||
 A ||--------------|-------------|---------------------|-------------------||
 E ||--------------|-------------|---------------------|-------------------||

Guitar Riff 1B:
 
 e --------------|-------------|----------------------|----------------------|
 B -2--2--2--2---|-0---0--0--0-|-7--7-7-7-8/10-10--10-|-7--7-7-7-8/10-10--10-|
 G -3--3--3--3---|-0---0--0--0-|-6--6-6-6-7/-9--9---9-|-6--6-6-6-7/-9--9---9-|
 D -4--4-----4---|-2------2----|----------------------|----------------------|
 A --------------|-------------|----------------------|----------------------|
 E --------------|-------------|----------------------|----------------------|

You play Guitar Riff 1A three times, then you play Guitar Riff 2B once. You
can play around a bit, especially at the F# to Em part. The second chorus
goes something like this:
 
 e ||--------------|-------------|-----------------|------------------------||
 G ||--------------|-------------|-----------------|------------------------||
 D ||--------------|-------------|-----------------|------------------------||
 A ||-4----4--4--4-|-5--5---5--5-|-----------------|------------------------||
 E ||--------------|-------------|-7--7-7-7-5------|-2--2-2-2-3-----0--2--5-||

You play this three times, and on the fourth time, you play only half of it.
Listen to the tape or CD and you will know what I mean. Anyway, the guitar
for that part is:
 
 e ||-----------|------------|--------------------------|-------------------||
 B ||-----------|------------|-12--12-12-12\10-10-10-10-|-7--7-7-7/10-10-10-||
 G ||-6--6-6--6-|-7-7--7-7-7-|-11--11-11-11\-9--9--9--9-|-6--6-6-6/-9--9--9-||
 D ||-6--6-6--6-|-7-7--7-7-7-|--------------------------|-------------------||
 A ||-----------|------------|--------------------------|-------------------||
 E ||-----------|------------|--------------------------|-------------------||

Like the bass, repeat this three times and then play half of it. The song
ends with Riff 1 repeating and there are inaudible sounds of the intro going.
I hope this has helped. It may not be perfect and maybe you can formulate
your own transcription of it or whatever. By the way, here are the lyrics:
The Chords part, tabbed by: graph_sas [grapb_sas@botmail.com]
[Bm] [F#m] [A] [Bm]  
W[A]hisper your name in an empty room
[Bm] [F#m] [A] [Bm] 
Y[A]ou brush past my skin as soft as fur
[Bm]Taking hold[F#m] I t[A]aste your s[Bm]cent[F#m] [A]
[Bm]Distant noises[F#m] [A] of [Bm]other voices[F#m] [A]
[F#m]Pounding in my b[A]roken head[F#m] [Gm] [F#m] [Gm]
[F#m] [A] [F#m] [Gm] 
[Gm]Commit the sin, commit yourself
[F#m] [A] [F#m] [Gm] 
[Gm]And all the other voices said
[F#m] [A] [F#m] [Gm] [A] 
[Gm]Cha[A]nge [Bm]your m[F#m]ind [A]you're always wrong
(always wrong)
Repeat the main riff through the Verse: [Bm, F#m, A]
Come around at christmas I really have to see you
smile at me slyly Another festive compromise
But i live with desertion and eight million people
Distant noises, other voices
Repeat the bridge chords: [F#m, A, F#m, Gm]
Pulsing in my swinging arms
Caress the sound, so many dead
and all the other voices sing
change your mind You're always wrong
(Wrong...)
????????????????????????????????????????????????????????????????????????????
?ALL CATS ARE GREY?
Words by: L.Tolhurst Music by: The Cure published by: Fiction Records, 1981
Tabbed by: graph_sas
SYNTH CHORDS: G#, E, D, B (x4)
C, B, (x4) A
[G#m]I never t[E]hought that I would [D]find myself[Bm]
In [G#m]bed amongst the s[E]tones[D]
The [Bm]columns are all m[G#m]en
Begging to c[E]rush me[D]
No s[Bm]hapes sail on the d[G#m]ark deep lakes[E]
And no [D]flags wave me [Bm]home
[C] In the caves
All [Bm]cats are grey
[C]In the caves
The [Bm]textures coat my skin
[C]In the dea[Bm]th cell
[C]A single note
Rings o[Bm]n and on and [A]on
(A) play to the end
 
 G ?-2------------------|
 D --2------------------|
 A --0------------------|
 E --X------------------|

????????????????????????????????????????????????????????????????????????????
?THE FUNERAL PARTY?
Words by: R.Smith Music by: The Cure published by: Fiction Records, 1981
Tabbed by: Gallagher2006
Tuning: Standard
Easy song to strum along to, but it?s beautiful none the less.
I?ve arranged the song for a capo on the third fret, just to make
the whole thing even easier :P
Chords: (capo 3rd)
C (x32010)
Am (x02210)
Fmaj7 (x33210)
[C]Two pale figures
[Am]Ache in silence
[C]Timeless
[Am]in the quiet ground
[C]side by side
[Am]in age and sadness
[C] [/] [Am]  
[C]I watched
[Am]And acted wordlessly
[C]As piece by piece
[Am]You performed your story
[C]Moving through an [Am]unknown past
[C]Dancing at the f[Am]uneral party
Fmaj7 (transition chord for two bars)
[C]Memories of chi[Am]ldrens' dreams
[C]Lie lifeless fading
[Am]Lifeless
[C]Hand in hand with [Am]fear and shadows
[C]Crying at the fune[A]ral party
[Fmaj7]  
[C]I heard a song
[Am]And turned away
[C]As piece by piece
[Am]You performed your story
[C]Noiselessly a[Am]cross the floor
[C]Dancing at the f[Am]uneral party
[F]  
C / Am until end
Enjoy!
????????????????????????????????????????????????????????????????????????????
?DOUBT?
Words by: S.Gallup Music by: The Cure published by: Fiction Records, 1981
Tabbed by: unregisered & graph_sas
Unregistered was transcribed the line bass:
The Basic Rhythm
 
 G ---------------------------------|
 D ---------------------------------|
 A -------------------3-3-3-2-2-----|
 E -0-0-3-3-2-1-1-1-1---------------|

First Chorus - "Screaming Throw Myself..."
 
 G ----------------------------------|
 D ----------------------------------|
 A ------------------3-3-3-5-5-5-5-5-|
 E -5-5-5--3-3-3-3-3-----------------|

Second Chorus - "Kiss You Once..."
 
 G ---------------------------------------------------------------------|
 D ---------------------------------------------------------------------|
 A -----------------------------------------------9-9---------------9-9-|
 E -1-1-1-1-1-1-1-1-1-1-1-1-1-1-1-1-5-5-5-3-3-3-3-----5-5-5-3-3-3-3-----|

"Life...ooohhh..."
 
 G ------------------------|
 D ------------------------|
 A ---2-----2-----4-----4--|
 E -3---3-3---3-5---5-5--5-|

Repeat Rhythm And End On Open E
These are my chords play over the verse: Em, G, F#
Verse:
[Em]Stop my flight [G]to fight
And d[F#]ie
And t[Em]ake a stand to c[G]hange my life[F#]
Em G F# Em, G, F#
So savage with red desperation
I c[Em]lench my hands
You d[G]raw your c[F#]laws
A h[Em]idden rage c[G]onsumes my h[F#]eart
[Em]Fuelled by years of [G]wasted t[F#]ime
I c[Em]lose my eyes
And t[G]ense mys[F#]elf
These are my chords play over the brigde: A, G, A, C
Bridge:
And [A]screaming
Throw mys[G]elf in fury [A]over the edge
And i[C]nto your blood
Verse: Em, G, F#
Tear at flesh
And rip at skin
And smash at doubt
I have to break you
Fury drives my vicious blows
I see you fall but still I strike you
Again and again
Your body falls
The movement is sharp and clear and pure
And gone
I stop and kneel beside you
Drained of everything but pain
Play the bridge chords: A, G, A, C
And[A] screaming
Throw mys[G]elf in fury [A]over the edge
And i[C]nto your blood[A]
[C] into your blood
F A, G (x2)
Kiss you once and see you writhe
F A, G (x2)
Hold you close and hear you cry
F A, G (x2)
Kiss your eyes and finish your life
[F]Kiss your eyes[F]
Em G A, G (x2)
Finish your life
Interlude: F, A, G, A, G (x3)
Verse: Em, G, F#
Again and again
Your body falls
The movement is sharp and clear and pure
And gone
I stop and kneel beside you
Knowing I'll murder you again tonight
[Em]Knowing I'll murder y[G]ou ag[F#]ain
Knowing I'll murder you again
Knowing I'll murder you again
Knowing I'll murder you again
[Em]Tonight
????????????????????????????????????????????????????????????????????????????
?THE DROWNING MAN?
Words by: R.Smith Music by: The Cure published by: Fiction Records, 1981
Tabbed by: graph_sas
Tuning: normal
Intro: Dm, Em, Bb
Riff 1: [Dm, Em, Bb]
She [Dm]stands twelve feet [Em]above the flood
She [Bb]stares
Alone
Across the water
The l[Dm]oneliness grows and [Em]slowly
Fills her [Bb]frozen body
Sliding downwards
Riff 2: [G, F#, Bb]
[G]One by one her [F#]senses die
The [Bb]memories fade
And leave her eyes
Still s[G]eeing worlds that [F#]never were
Bb Repeat Riff 1: [Dm, Em,
x2
And one by one the bright birds leave her ...
Repeat Riff 2: [G, F#, Bb] x 2
[Dm]Starting at the v[Em]iolent sound
She t[Bb]ries to turn
But final
Noiseless
[Dm]Slips and strikes her [Em]soft dark head
The [Bb]water bows
Receives her
And d[G]rowns her at its [F#]ease[Bb]
D[G]rowns her at its [F#]ease[Bb]
I [Dm]would have left the [Em]world all bleeding
[Bb]Could I only help you love
The [Dm]fleeting shapes so [Em]many years a[Bb]go
So young and beautiful and brave
[G]Everything was t[F#]rue
It couldn't [Bb]be a story
I w[G]ish it was all t[F#]rue
I wish it c[Bb]ouldn't be a story
The [Dm]words all left me
[Em]Lifeless
Hoping
[Bb]Breathing like the drowning man
Oh F[Dm]ushia[Em]
You leave me
Bb G, F#, Bb
Breathing like the drowning man
Bb G, F#, Bb
Breathing like the drowning man
Repeat Riff 1,and 2 two times alternately to the end...
????????????????????????????????????????????????????????????????????????????
?FAITH?
Words by: R.Smith Music by: The Cure published by: Fiction Records, 1981
Tabbed by: Gallagher2006
Rhythm figure 1:
 
 e---------------------------------------------------------|
 B---------------------------------------------------------|
 G---------------------------------------------------------|
 D---------------------------------------------------------|
 A--5--5--5--3---3--3--3--2--2--2---0--0--0--0-------------|
 E---------------------------------------------------------|

end rhythm figure 1
Rhythm figure 2:
 
 e---------------------------------------------------------|
 G---------------------------------------------------------|
 D---------------------------------------------------------|
 A--0--0--0--2---2--2--2-----------------------------------|
 E------------------------3--3--3--5---5--5--5-------------|

end rhythm figure 2
Variation:
 
 e---------------------------------------------------------|
 G---------------------------------------------------------|
 D---------------------------------------------------------|
 A--3--3--3--0---0--0--0--3--3--3---0--0--0--0--2--2--2----|
 E-------------------------------------------------------3-|
 e---------------------------------------------------------|
 G---------------------------------------------------------|
 D-----------------------------------3---3---3---2---2---2-|
 A-----------0--0--0---------------------------------------|
 E--3--3--3------------3--3--3--3--------------------------|
 e---------------------------------------------------------|
 G---------------------------------------------------------|
 D--2---0--0--0-----------------3--3--3----2--2--2--2------|
 A----------------3---3--3--3------------------------------|
 E---------------------------------------------------------|
 e---------------------------------------------------------|
 G---------------------------------------------------------|
 D--0--0--0----------------1--1--1----------------1--1--1--|
 A------------3---3--3--3------------2---2--2--2-----------|
 E---------------------------------------------------------|
 e---------------------------------------------------------|
 G---------------------------------------------------------|
 D--------------0--0--0---------------0--0--0--------------|
 A--2--2--2--2-----------1---1--1--1-----------1---1--1--1-|
 E---------------------------------------------------------|

[Dm]Catch me if I fall
I'm losing h[F]old
I c[Em]an't just carry on this way[F]
And [Dm]every time
I turn away[F]
L[Em]ose another blind game
The i[F]dea of perfection holds me
[Dm]Suddenly I see you change[F]
[Em]Everything at once the same
But the [F]mountain never moves
[Dm]Rape me like a child
Christened in blo[F]od
[Am]Painted like an unknown saint
There's n[G]othing left but hope
Your voice is d[Dm]ead
And old
And always e[F]mpty
[Em]Trust in me through closing years
[F]Perfect moments wait
If only we could s[Dm]tay
Please
Say the right w[F]ords
Or cry like the stone white clown
And s[Em]tand
Lost forever in a h[F]appy crowd
[Dm]No one lifts their hands
[F]No one lifts their eyes
[Em]Justified with empty words
The [F]party just gets better and better
????????????????????????????????
[Dm]I went away alone[F]
[Em]With nothing left
But faith[F]
????????????????????????????????
AMEN
????????????????????????????????????????????????????????????????????????????
All chord chats are taken from and feedback for ultimate-guitar.com
From the author of this compilation: Sergio Atencia Sánchez [grapb_sas@botmail.com]
Please, e-mail me for any question, suggestion or warning.
Thanks a lot to the others users and enjoy the tabs!! ^^
????????????????????????????????????????????????????????????????????????????

Important: The song above is NOT stored on the Chordie server. The original song is hosted at www.guitaretab.com. Chordie works as a search engine and provides on-the-fly formatting. Chordie does not index songs against artists'/composers' will. To remove this song please click here.

Text color:
Chord color:
Chord grids: 
Font size:    
Page size: 

A Am Bb Bm C D Dm E Em F F# F#m Fmaj7 G G#m Gm
Rate #1 of 5 versions

Jango Player

Login - add to songbook

SHARE PAGE  



You need to log in to post comments