Guitar Tabs, Chords and Lyrics
Major upgrade!! After one year development the new version of Chordie is now online! Please give feedback.


End   The Cure

 
 e|----------------------|
 B|----------------------|
 G|------0--------0------|
 D|-----------0-0---00---| Played 3 times
 A|--3-3---33------------|
 E|----------------------|
 e|----------------------|
 B|----------------------|
 G|------0--------0------|
 D|----------------------| Played once
 A|--1-1---11-1-1--------|
 E|----------------------|
 e|----------------------|
 B|----------------------|
 G|------0--------0------|
 D|-----------0-0---00---| Played 3 times
 A|--3-3---33------------|
 E|----------------------|
 e|-----------------------------------------------|
 B|-----------------------------------------------|
 G|------0--------0-----0--------0-----0--------0-|
 D|--1-1---11-1-1---------------------------------| Played once
 A|-----------------1-1---11-1-1---3-3---33-3-3---|
 E|-----------------------------------------------|
 e|------------------------------|
 B|------------------0-----------|
 G|-----0------0--------------0--|
 D|------------------------------| Played 3 times
 A|-3-3--33-3-3------------------|
 E|--------------3-3---33/1-1----|


Important: The song above is NOT stored on the Chordie server. The original song is hosted at www.guitaretab.com. Chordie works as a search engine and provides on-the-fly formatting. Chordie does not index songs against artists'/composers' will. To remove this song please click here.

This song is displayed as text-only. Transposing and tuning is only available for chordpro-songs.
Rate #1 of 5 versions

Jango Player

Login - add to songbook

SHARE PAGE  




You need to log in to post comments