Guitar Tabs, Chords and Lyrics
Major upgrade!! After one year development the new version of Chordie is now online! Please give feedback.


Jupiter Crash  The Cure

The Cure
Wild Mood Swings
1998
It is unbelievable how every person on every website just submitted the solo and said it
the whole song. This, my friends, is all of Jupiter Crash. It took me a long time to
the whole thing out but now it is here for you.
Do us all a favor, and actually tab things out instead of submitting other guitarists' work.
Thank you,
Daniella.
INTRO 0:00:
 
 E-----------------------------------=
 B?5---------8--------3--------0-----=
 G-----4---------7--------2-------0--= x3
 D-2-2---2---5-5---5--0-0---0--0-0---=
 A-----------------------------------=
 E-----------------------------------=
 E---------------------------------=
 B---------------------------------=
 G---------------------------------=
 D-------0----4--------0----4------=
 A-----0---0---------0---0---------=
 E--2-----------3--2----------3----=
 E-----------------------------=
 B--5--------------3--------0--=
 G------4---4-5-4------2-------= x3
 D--2-2---2--------0-0---0--0--=
 A-----------------------------=
 E-----------------------------=
 E---------------------------------=
 B---------------------------------=
 G---------------------------------=
 D-------0---4-2--------0---4-2----=
 A-----0---0----------0---0--------=
 E--2------------3--2-----------3--=
 E-----------------------------=
 B--5--------------3--------0--=
 G------4---4-5-4------2-------= x3
 D--2-2---2--------0-0---0--0--=
 A-----------------------------=
 E-----------------------------=
 E---------------------------------=
 B---------------------------------=
 G---------------------------------=
 D-------0---4-2--------0---4-2----=
 A-----0---0----------0---0--------=
 E--2------------3--2-----------3--=

VERSE 1:41:
 
 E-----------------------------=
 B--5--------------3--------0--=
 G------4---4-5-4------2-------= x3
 D--2-2---2--------0-0---0--0--=
 A-----------------------------=
 E-----------------------------=
 E---------------------------------=
 B---------------------------------=
 G---------------------------------=
 D-------0---4-2--------0---4-2----=
 A-----0---0----------0---0--------=
 E--2------------3--2-----------3--=
 E-----------------------------=
 B--5--------------3--------0--=
 G------4---4-5-4------2-------= x3
 D--2-2---2--------0-0---0--0--=
 A-----------------------------=
 E-----------------------------=
 E---------------------------------=
 B---------------------------------=
 G---------------------------------=
 D-------0---4-2--------0---4-2----=
 A-----0---0----------0---0--------=
 E--2------------3--2-----------3--=

CHORUS 2:26:
[Em]e|-0 [C]e|-0 e|-0 e|-0-|
B|-0 B|-1 B|-3 B|-7-|
G|-0 G|-0 G|-0 G|-0-|
D|-2 D|-2 D|-5 D|-5-|
A|-2 A|-3 A|-6 A|-7-|
e|-0 e|-0 e|-0 e|-0-|
VERSE 2:46
 
 E-----------------------------=
 B--5--------------3--------0--=
 G------4---4-5-4------2-------= x3
 D--2-2---2--------0-0---0--0--=
 A-----------------------------=
 E-----------------------------=
 E---------------------------------=
 B---------------------------------=
 G---------------------------------=
 D-------0---4-2--------0---4-2----=
 A-----0---0----------0---0--------=
 E--2------------3--2-----------3--=

Solo: 3:07
 
 E-------------------------------------------=
 B-------------------------------------------=
 G-7--7--7--7--7--7--7--7--7--7--7--7--5--4--=
 D-------------------------------------------=
 A-------------------------------------------=
 E-------------------------------------------=
 E-------------------------------------------=
 B----------------------------8\--10\--12----=
 G-------7--7--7--7--7--7--7-----------------=
 D-2--2--------------------------------------=
 A-------------------------------------------=
 E-------------------------------------------=
 E-------------------------------------------------------=
 B-------12--12--12--12--10--------12--12--12--12--10\---=
 G-9--9----------------------7--7------------------------=
 D-------------------------------------------------------=
 A-------------------------------------------------------=
 E-------------------------------------------------------=
 E----------------------------------------------------=
 B----------------------------------------------------=
 G-5--5--5--5--5--4--5~7--5--5--5--5--5--4--5--7------=
 D----------------------------------------------------=
 A----------------------------------------------------=
 E----------------------------------------------------=

VERSE 3:31:
 
 E-----------------------------=
 B--5--------------3--------0--=
 G------4---4-5-4------2-------= x3
 D--2-2---2--------0-0---0--0--=
 A-----------------------------=
 E-----------------------------=
 E---------------------------------=
 B---------------------------------=
 G---------------------------------=
 D-------0---4-2--------0---4-2----=
 A-----0---0----------0---0--------=
 E--2------------3--2-----------3--=


Important: The song above is NOT stored on the Chordie server. The original song is hosted at www.guitaretab.com. Chordie works as a search engine and provides on-the-fly formatting. Chordie does not index songs against artists'/composers' will. To remove this song please click here.

Text color:
Chord color:
Chord grids: 
Font size:    
Page size: 

C Em
Rate #2 of 3 versions

Jango Player

Login - add to songbook

SHARE PAGE  




You need to log in to post comments