Guitar Tabs, Chords and Lyrics
Major upgrade!! After one year development the new version of Chordie is now online! Please give feedback.


Lovesong  The Cure

Intro
 
 1|--7--|----------------------------|-----|--7--|
 2|--5--|----1--3/5--3--3/5--3/1-----|-----|--5--|
 3|--5--|--2----------------------x4-|--2--|--5--|
 4|--7--|----------------------------|-----|--7--|
 5|-----|----------------------------|-----|-----|
 6|-----|----------------------------|-----|-----|

Whe[Am]never I'[G]m alon[F]e with[E] you
Yo[Am]u make me f[G]eel like I [F]am home a[E]gain
Whe[Am]never I'[G]m alon[F]e with[E] you
You[Am] make me f[G]eel like I [F]am whole a[E]gain
Riff
 
 1|--7--|----------------------------|-----|--7--|
 2|--5--|----1--3/5--3--3/5--3/1-----|-----|--5--|
 3|--5--|--2----------------------x4-|--2--|--5--|
 4|--7--|----------------------------|-----|--7--|
 5|-----|----------------------------|-----|-----|
 6|-----|----------------------------|-----|-----|

Whe[Am]never [G]I'm alo[F]ne with [E]you
Yo[Am]u make me [G]feel like I[F] am young a[E]gain
Whe[Am]never [G]I'm alo[F]ne with [E]you
Yo[Am]u make me [G]feel like I[F] am fun aga[E]in
Verse
1|--7--|
2|--5--|
3|--5--|
4|--7--|
5|-----|
6|-----|
Ho[F]wever f[G]ar away
I wil[Am]l always[C] love you
How[F]ever long [G]I stay
I wil[Am]l always[C] love you
Wha[F]tever words [G]I say
I wil[Am]l always[C] love you
I wi[F]ll alwa[Am]ys love [G]you
Riff
 
 1|--7--|----------------------------|-----|--7--|
 2|--5--|----1--3/5--3--3/5--3/1-----|-----|--5--|
 3|--5--|--2----------------------x4-|--2--|--5--|
 4|--7--|----------------------------|-----|--7--|
 5|-----|----------------------------|-----|-----|
 6|-----|----------------------------|-----|-----|

Solo:
 
 1|--7-7-7-7-----7-7-----7-7-7-7-----7-8-8/10-10-----------------------|
 2|----------8-------8-----------8-----------------8-8-8-8--8/(10)-10--|
 3|--------------------------------------------------------------------|
 4|--------------------------------------------------------------------|
 5|--------------------------------------------------------------------|
 6|--------------------------------------------------------------------|
 1|--------------------------------------------------|
 2|--10-10-10----------------------------------------|
 3|-----------8-7-5-7-7/8-7-5-5-5-5-5-5-4--0-2-0-2---|
 4|--------------------------------------------------|
 5|--------------------------------------------------|
 6|--------------------------------------------------|

Whe[Am]never I'[G]m alon[F]e with[E] you
Yo[Am]u make me f[G]eel like I [F]am free a[E]gain
Whe[Am]never I'[G]m alon[F]e with[E] you
You[Am] make me f[G]eel like I [F]am clean a[E]gain
Verse
1|--7--|
2|--5--|
3|--5--|
4|--7--|
5|-----|
6|-----|
Howe[F]ver far [G]away
I wil[Am]l always[C] love you
How[C]ever long I[G] stay
I wil[Am]l always[C] love you
Wha[F]tever words [G]I say
I wil[Am]l always[C] love you
I wi[Am]ll alway[C]s love you
[End]1|--7--|
2|--5--|
3|--5--|
4|--7--|
5|-----|
6|-----|

Important: The song above is NOT stored on the Chordie server. The original song is hosted at www.guitaretab.com. Chordie works as a search engine and provides on-the-fly formatting. Chordie does not index songs against artists'/composers' will. To remove this song please click here.

Text color:
Chord color:
Chord grids: 
Font size:    
Page size: 

Am C E F G
Rate #1 of 17 versions

Jango Player

Login - add to songbook

SHARE PAGE  




You need to log in to post comments