Guitar Tabs, Chords and Lyrics
Major upgrade!! After one year development the new version of Chordie is now online! Please give feedback.


At Conception  Cursive

 
 -------------------------------------------------------------------------------

SONG NAME - Band Name
 
 -------------------------------------------------------------------------------

Tabbed by: Greg.G
Email: greg_adam_green@yahoo.com
feel free to e-mail any corrections, this tab isn't perfect but it sounds like the song.
didn't list the name of the second chord after B but it's tabbed.
Tuning:
[G#m] [E]  
 
 e|-------------------------------------------------------------------------------|
 B|-------------------------------------------------------------------------------|
 G|-------5------------------------1----------------------------------------------|
 D|-----------6----------------------2--------------------------------------------|
 A|-----------6----------------------2--------------------------------------------|
 E|---4----------------------------0----------------------------------------------|

Jeanie's been throwing up... all morning poor girls been
[C#m] [G#m] [F#m] [B]  
 
 e|-----------------------------------------------------------------|
 B|----6------------------------------------------------------------|
 G|-------5-----------------------5---------3------------9-------8--|
 D|-------5--------------------------6--------4----------9-------8--|
 A|-4--------------------------------6--------4----------9-------8--|
 E|-0---------------------------4----------2---------7--------6-----| so heartsick ever 

her boyfriend went to war...
Father Cole's done his best to console the girl-
more so than some neighbors deem necessary-
but you just can't measure young love
Picketing the clinic outside town,
Father Cole holds the record for turning twelve girls around.
[B] [E]  
 
 e|---------------------------------------------------------------------------|
 B|---------------------------------------------------------------------------|
 G|---------------------------------------------------------------------------|
 D|---------------------------------------------------------------------------|
 A|---------------------------------------------------------------------------|
 E|---------------------------------------------------------------------------| If 

knows the sorrows of the young woman, it's...
* For this set of verses, they are sung differently and do not end on the B switch.
Father Cole, he's been acting out of sorts;
that strange sermon he gave accepting termination due to rape.
Jeannie whispered, "She's carrying" but there's one awful catch:
her boyfriend's been off in the desert for half a year.
Cole cried, "This simply cannot be!"
She quipped, "Quite the opposite-
I'm hardly the Virgin Mary...and you're no carpenter.
So, who will build my home?"
"Jeannie, you're just a kid. You can't conceive such mortal sins.
Everything will be alright...
[B] [E]  
 
 e|---------------------------------------------------------------------------|
 B|---------------------------------------------------------------------------|
 G|---------------------------------------------------------------------------|
 D|---------------------------------------------------------------------------|
 A|---------------------------------------------------------------------------|
 E|---------------------------------------------------------------------------|what 

in confession stays in the confessional."

Important: The song above is NOT stored on the Chordie server. The original song is hosted at www.guitaretab.com. Chordie works as a search engine and provides on-the-fly formatting. Chordie does not index songs against artists'/composers' will. To remove this song please click here.

Text color:
Chord color:
Chord grids: 
Font size:    
Page size: 

B C#m E F#m G#m
Rate #1 of 2 versions

Jango Player

Login - add to songbook

SHARE PAGE  



You need to log in to post comments