Guitar Tabs, Chords and Lyrics
Server problems seems to be fixed. Chordie has been experiencing problems with songs disappearing. These issues now seems to be fixed, but still verifying the fix. If you find anything strange, please email admin@chordie.com.


Alone  Custard

Date: 28 Jun 1995 16:11:45 GMT
 
 =====--------=======------------===============

Alone by Custard from Wahootifandango
 
 =====--------=======------------===============

Transcribed by Greg O'Beirne (gobeirne@tartarus.uwa.edu.au)
Intro:
[-----] G (four bars with doodling)
Verse:
[-----]  
Chords: GGGG CCCC AAAA DDDD
Lyrics:
I am always cursed to be alone everywhere
with the same old hair style
I am always cursed to live out my life alone
without telephone for company
Pre-Chorus
 
 ----------

Chords: GGGG CCC D D C B
Lyrics: I remembered your face when we first met
And I remembered the place where... where we first met
G (four bars)
I'm Alone.....
Chorus
 
 ------

Chords: GG C AA D
Lyrics: I'm alone (I'm Alone) x 3
I'm alone...
Little Solo
 
 -----------

[A]  
[1] [+] [2] [+] [3] [+] [4] [+] [1] [+] [2] [+] [3] [+] [4] [+] [1] [+] [2] [+] [3] [+] [4] [+] [1] [+] [2] [+] [3] [+] [4] [+]  
 
 E------------------------------------------------------------------|
 B------------------------------------------------------------------|
 G----------------------7---9--/11--9---7---------------------------|
 D--------------7---9---------------------------9---------------\---|
 A--7---9---10------------------------------------------------------|
 E------------------------------------------------------------------|

Verse:
[-----]  
Chords: GGGG CCCC AAAA DDDD
Lyrics:
With or without or with you I do not compare
So what else is there for me to do
The cast of my life only just includes me...
Pre-Chorus
 
 ----------

Chords: G G G G C C C D D C B
Lyrics: I remembered your face when we first met
And I remembered your face when we last met
G (four bars)
Chorus
 
 ------

Chords: GG C AA D
Lyrics: I'm alone (I'm Alone) x 3
I'm alone...
Bridge
 
 ------

[E] [D] [C] [E] [D] [C] 
[1] [+] [2] [+] [3] [+] [4] [+] [1] [+] [2] [+] [3] [+] [4] [+] [1] [+] [2] [+] [3] [+] [4] [+] [1] [+] [2] [+] [3] [+] [4] [+]  
 
 E------------------------------------------------------------------|
 B--8-------10------8---------------8-------10------8---------------|
 G------------------------------------------------------------------|
 D------------------------------------------------------------------|
 A------------------------------------------------------------------|
 E------------------------------------------------------------------|

Get your keys out... Get your keys out...
[E] [D] [C] [B]  
[1] [+] [2] [+] [3] [+] [4] [+] [1] [+] [2] [+] [3] [+] [4] [+]  
 
 E----------------------------------|
 B--8-------10-----/13------12------|
 G----------------------------------|
 D----------------------------------|
 A----------------------------------|
 E----------------------------------|

Get your keys out of my
[A]  
[1] [+] [2] [+] [3] [+] [4] [+] [1] [+] [2] [+] [3] [+] [4] [+]  
 
 E--------------------------------------------------|
 B--10h12-10h12-10h12-10h12-10h12-10h12-10h12-10h12-|
 G--------------------------------------------------|
 D--------------------------------------------------|
 A--------------------------------------------------|
 E--------------------------------------------------|

eyes... Coz I...
[D]  
[1] [+] [2] [+] [3] [+] [4] [+] [1] [+] [2] [+] [3] [+] [4] [+]  
 
 E--------------------------------------------------|
 B--10h12-10h12-10h12-10h12-10h12-10h12-10h12-12~\--|
 G--------------------------------------------------|
 D--------------------------------------------------|
 A--------------------------------------------------|
 E--------------------------------------------------|

want... to be... alone........
Chorus
 
 ------

Chords: GG C AA D
Lyrics: I'm alone (I'm Alone) x 3
I'm alone...
Outro
[-----]  
[A]  
[1] [+] [2] [+] [3] [+] [4] [+] [1] [+] [2] [+] [3] [+] [4] [+] [1] [+] [2] [+] [3] [+] [4] [+] [1] [+] [2] [+] [3] [+] [4] [+]  
 
 E------------------------------------------------------------------|
 B------------------------------------------------------------------|
 G----------------------7---9---11--9---7---------------------------|
 D--------------7---9---------------------------9-------7-------5---|
 A--7---9---10------------------------------------------------------|
 E------------------------------------------------------------------|

[G]  
[1] [+] [2] [+] [3] [+] [4] [+] [1] [+] [2] [+] [3] [+] [4] [+]  
 
 E----------------------------------|
 B----------------------------------|
 G----------------------------------|
 D-/9-------------------------------| And finish :)
 A----------------------------------|
 E----------------------------------|

[--]Greg O'Beirne
gobeirne@tartarus.uwa.edu.au
http://www.uwa.edu.au/student/gobeirne/
From gobeirne@tartarus.uwa.edu.au Thu Jun 29 16:06:50 1995
guitar@nevada.edu
Subject: TAB: "Alone" by Custard
Message-ID:
MIME-Version: 1.0
Content-Type: TEXT/PLAIN; charset=US-ASCII
Status: O
 
 =====--------=======------------===============

Alone by Custard from Wahootifandango
 
 =====--------=======------------===============

Transcribed by Greg O'Beirne (gobeirne@tartarus.uwa.edu.au)
Intro:
[-----] G (four bars with doodling)
Verse:
[-----]  
Chords: GGGG CCCC AAAA DDDD
Lyrics:
I am always cursed to be alone everywhere
with the same old hair style
I am always cursed to live out my life alone
without telephone for company
Pre-Chorus
 
 ----------

Chords: GGGG CCC D D C B
Lyrics: I remembered your face when we first met
And I remembered the place where... where we first met
G (four bars)
I'm Alone.....
Chorus
 
 ------

Chords: GG C AA D
Lyrics: I'm alone (I'm Alone) x 3
I'm alone...
Little Solo
 
 -----------

[A]  
[1] [+] [2] [+] [3] [+] [4] [+] [1] [+] [2] [+] [3] [+] [4] [+] [1] [+] [2] [+] [3] [+] [4] [+] [1] [+] [2] [+] [3] [+] [4] [+]  
 
 E------------------------------------------------------------------|
 B------------------------------------------------------------------|
 G----------------------7---9--/11--9---7---------------------------|
 D--------------7---9---------------------------9---------------\---|
 A--7---9---10------------------------------------------------------|
 E------------------------------------------------------------------|

Verse:
[-----]  
Chords: GGGG CCCC AAAA DDDD
Lyrics:
With or without or with you I do not compare
So what else is there for me to do
The cast of my life only just includes me...
Pre-Chorus
 
 ----------

Chords: G G G G C C C D D C B
Lyrics: I remembered your face when we first met
And I remembered your face when we last met
G (four bars)
Chorus
 
 ------

Chords: GG C AA D
Lyrics: I'm alone (I'm Alone) x 3
I'm alone...
Bridge
 
 ------

[E] [D] [C] [E] [D] [C] 
[1] [+] [2] [+] [3] [+] [4] [+] [1] [+] [2] [+] [3] [+] [4] [+] [1] [+] [2] [+] [3] [+] [4] [+] [1] [+] [2] [+] [3] [+] [4] [+]  
 
 E------------------------------------------------------------------|
 B--8-------10------8---------------8-------10------8---------------|
 G------------------------------------------------------------------|
 D------------------------------------------------------------------|
 A------------------------------------------------------------------|
 E------------------------------------------------------------------|

Get your keys out... Get your keys out...
[E] [D] [C] [B]  
[1] [+] [2] [+] [3] [+] [4] [+] [1] [+] [2] [+] [3] [+] [4] [+]  
 
 E----------------------------------|
 B--8-------10-----/13------12------|
 G----------------------------------|
 D----------------------------------|
 A----------------------------------|
 E----------------------------------|

Get your keys out of my
[A]  
[1] [+] [2] [+] [3] [+] [4] [+] [1] [+] [2] [+] [3] [+] [4] [+]  
 
 E--------------------------------------------------|
 B--10h12-10h12-10h12-10h12-10h12-10h12-10h12-10h12-|
 G--------------------------------------------------|
 D--------------------------------------------------|
 A--------------------------------------------------|
 E--------------------------------------------------|

house... Coz I...
[D]  
[1] [+] [2] [+] [3] [+] [4] [+] [1] [+] [2] [+] [3] [+] [4] [+]  
 
 E--------------------------------------------------|
 B--10h12-10h12-10h12-10h12-10h12-10h12-10h12-12~\--|
 G--------------------------------------------------|
 D--------------------------------------------------|
 A--------------------------------------------------|
 E--------------------------------------------------|

want... to be... alone........
Chorus
 
 ------

Chords: GG C AA D
Lyrics: I'm alone (I'm Alone) x 3
I'm alone...
Outro
[-----]  
[A]  
[1] [+] [2] [+] [3] [+] [4] [+] [1] [+] [2] [+] [3] [+] [4] [+] [1] [+] [2] [+] [3] [+] [4] [+] [1] [+] [2] [+] [3] [+] [4] [+]  
 
 E------------------------------------------------------------------|
 B------------------------------------------------------------------|
 G----------------------7---9---11--9---7---------------------------|
 D--------------7---9---------------------------9-------7-------5---|
 A--7---9---10------------------------------------------------------|
 E------------------------------------------------------------------|

[G]  
[1] [+] [2] [+] [3] [+] [4] [+] [1] [+] [2] [+] [3] [+] [4] [+]  
 
 E----------------------------------|
 B----------------------------------|
 G----------------------------------|
 D-/9-------------------------------| And finish :)
 A----------------------------------|
 E----------------------------------|

[--]Greg O'Beirne
gobeirne@tartarus.uwa.edu.au
http://www.uwa.edu.au/student/gobeirne/

Important: The song above is NOT stored on the Chordie server. The original song is hosted at www.guitaretab.com. Chordie works as a search engine and provides on-the-fly formatting. Chordie does not index songs against artists'/composers' will. To remove this song please click here.

Text color:
Chord color:
Chord grids: 
Font size:    
Page size: 

A B C D E G
Rate #2 of 4 versions

Jango Player

Login - add to songbook

SHARE PAGE  



You need to log in to post comments