Guitar Tabs, Chords and Lyrics
Server problems seems to be fixed. Chordie has been experiencing problems with songs disappearing. These issues now seems to be fixed, but still verifying the fix. If you find anything strange, please email admin@chordie.com.


Nasa  Dance Gavin Dance

NASA Dance Gavin Dance
This Is Exported From Guitar Pro 5
Will Swan
E E E E S S S S
 
 E||-------|-------|--x--x--x--x--3-2-----|
 B||-------|-------|--x--x--x--x------3-0-|
 G||-------|-------|--x--x--x--x----------|
 D||-------|-------|--x--x--x--x----------|
 A||-------|-------|--x--x--x--x----------|
 D||-------|-------|--x--x--x--x----------|

E E E S S S S S S
 
 --x--x--x------2-3-----|
 --x--x--x--0-3-----3-0-|
 --x--x--x--------------|
 --x--x--x--------------|
 --x--x--x--------------|
 --x--x--x--------------|

E E E E S S S S
 
 --x--x--x--x--3-2-----|
 --x--x--x--x------3-0-|
 --x--x--x--x----------|
 --x--x--x--x----------|
 --x--x--x--x----------|
 --x--x--x--x----------|

S S S S S S S S S S S S
 
 --------------------------|
 ------0-3-0-------0-3-0---|
 --0-2-------2-0-2-------2-|
 --------------------------|
 --------------------------|
 --------------------------|

E E E E S S S S
 
 --x--x--x--x--3-2-----|
 --x--x--x--x------3-0-|
 --x--x--x--x----------|
 --x--x--x--x----------|
 --x--x--x--x----------|
 --x--x--x--x----------|

E E E S S S S S S
 
 --x--x--x------2-3-----|
 --x--x--x--0-3-----3-0-|
 --x--x--x--------------|
 --x--x--x--------------|
 --x--x--x--------------|
 --x--x--x--------------|

E E E E S S S S
 
 --x--x--x--x--3-2-----|
 --x--x--x--x------3-0-|
 --x--x--x--x----------|
 --x--x--x--x----------|
 --x--x--x--x----------|
 --x--x--x--x----------|

S S S S S S S S S S S S
 
 --------------------------|
 ------0-3-0-------0-3-0---|
 --0-2-------2-0-2-------2-|
 --------------------------|
 --------------------------|
 --------------------------|

E E E E S S S S
 
 --x--x--x--x--3-2-----|
 --x--x--x--x------3-0-|
 --x--x--x--x----------|
 --x--x--x--x----------|
 --x--x--x--x----------|
 --x--x--x--x----------|

E E E S S S S S S
 
 --x--x--x------2-3-----|
 --x--x--x--0-3-----3-0-|
 --x--x--x--------------|
 --x--x--x--------------|
 --x--x--x--------------|
 --x--x--x--------------|

E E E E S S S S
 
 --x--x--x--x--3-2-----|
 --x--x--x--x------3-0-|
 --x--x--x--x----------|
 --x--x--x--x----------|
 --x--x--x--x----------|
 --x--x--x--x----------|

S S S S S S S S S S S S
 
 --------------------------|
 ------0-3-0-------0-3-0---|
 --0-2-------2-0-2-------2-|
 --------------------------|
 --------------------------|
 --------------------------|

E E E E S S S S
 
 --x--x--x--x--3-2-----|
 --x--x--x--x------3-0-|
 --x--x--x--x----------|
 --x--x--x--x----------|
 --x--x--x--x----------|
 --x--x--x--x----------|

E E E S S S S S S
 
 --x--x--x------2-3-----|
 --x--x--x--0-3-----3-0-|
 --x--x--x--------------|
 --x--x--x--------------|
 --x--x--x--------------|
 --x--x--x--------------|

E E E E S S S S
 
 --x--x--x--x--3-2-----|
 --x--x--x--x------3-0-|
 --x--x--x--x----------|
 --x--x--x--x----------|
 --x--x--x--x----------|
 --x--x--x--x----------|

S S S S S S S S S S S S
 
 --------------------------|
 ------0-3-0-------0-3-0---|
 --0-2-------2-0-2-------2-|
 --------------------------|
 --------------------------|
 --------------------------|

E E E E S S S S
 
 --x--x--x--x--3-2-----|
 --x--x--x--x------3-0-|
 --x--x--x--x----------|
 --x--x--x--x----------|
 --x--x--x--x----------|
 --x--x--x--x----------|

E E E S S S S S S
 
 --x--x--x------2-3-----|
 --x--x--x--0-3-----3-0-|
 --x--x--x--------------|
 --x--x--x--------------|
 --x--x--x--------------|
 --x--x--x--------------|

E E E E S S S S
 
 --x--x--x--x--3-2-----|
 --x--x--x--x------3-0-|
 --x--x--x--x----------|
 --x--x--x--x----------|
 --x--x--x--x----------|
 --x--x--x--x----------|

S S S S S S S S S S S S
 
 --------------------------|
 ------0-3-0-------0-3-0---|
 --0-2-------2-0-2-------2-|
 --------------------------|
 --------------------------|
 --------------------------|

E E E E S S S S
 
 --x--x--x--x--3-2-----|
 --x--x--x--x------3-0-|
 --x--x--x--x----------|
 --x--x--x--x----------|
 --x--x--x--x----------|
 --x--x--x--x----------|

E E E S S S S S S
 
 --x--x--x------2-3-----|
 --x--x--x--0-3-----3-0-|
 --x--x--x--------------|
 --x--x--x--------------|
 --x--x--x--------------|
 --x--x--x--------------|

E E E E S S S S
 
 --x--x--x--x--3-2-----|
 --x--x--x--x------3-0-|
 --x--x--x--x----------|
 --x--x--x--x----------|
 --x--x--x--x----------|
 --x--x--x--x----------|

v
S S S S S S S S S S S S Q Q Q
 
 --------------------------|-----------------|
 ------0-3-0-------0-3-0---|--0----L----L----|
 --0-2-------2-0-2-------2-|--5----L----L----|
 --------------------------|--2----L----L----|
 --------------------------|--3----L----L----|
 --------------------------|-----------------|

S S S S S S S S S S S S S S S S
 
 |-------------------7-7-7-7---------|
 |---5-5-5-5-8-8-8-8---------5-5-5-5-|
 |*----------------------------------|
 |*----------------------------------|
 |-----------------------------------|
 |-----------------------------------|

S S S S S S S S S S S S S S S S
 
 ----------8-8-8-8-7-7-7-7---------|
 --8-8-8-8-----------------8-8-8-8-|
 ----------------------------------|
 ----------------------------------|
 ----------------------------------|
 ----------------------------------|

S S S S S S S S S S S S S S S S
 
 ------------------10-10-10-10---------|
 --5-5-5-5-8-8-8-8-------------5-5-5-5-|
 --------------------------------------|
 --------------------------------------|
 --------------------------------------|
 --------------------------------------|

S S S S S S S S S S S S S S S S
 
 ----------10-10-10-10-----------------|
 --8-8-8-8-------------5-5-5-5-8-8-8-8-|
 --------------------------------------|
 --------------------------------------|
 --------------------------------------|
 --------------------------------------|

S S S S S S S S S S S S S S
 
 --------------------------14-14-14-14---------|
 --12-12-12-12-15-15-15-15-------------12-12-1-|
 ----------------------------------------------|
 ----------------------------------------------|
 ----------------------------------------------|
 ----------------------------------------------|

S S S S S S S S S S S S S S
 
 --------------15-15-15-15-14-14-14-14---------|
 --15-15-15-15-------------------------15-15-1-|
 ----------------------------------------------|
 ----------------------------------------------|
 ----------------------------------------------|
 ----------------------------------------------|

S S S S S S S S S S S S S S
 
 --14-14-14-14-------------------------14-14-1-|
 --------------12-12-12-12-15-15-15-15---------|
 ----------------------------------------------|
 ----------------------------------------------|
 ----------------------------------------------|
 ----------------------------------------------|

S S S S S S S S S S S S S S
 
 --------------15-15-15-15-14-14-14-14---------|
 --12-12-12-12-------------------------15-15-1-|
 ----------------------------------------------|
 ----------------------------------------------|
 ----------------------------------------------|
 ----------------------------------------------|

W H H
 
 --------------------|----------------------|
 --12----------------|---L--------10--------|
 --------------------|----------------------|
 ---9----------------|---L---------7--------|
 --------------------|----------------------|
 --------------------|----------------------|

Q H Q
 
 ------------------------|
 ---L----12---------L----|
 ------------------------|
 ---L-----9---------L----|
 ------------------------|
 ------------------------|

H H W
 
 ----------------------|--------------------|
 ---L--------15--------|--12----------------|
 ----------------------|--------------------|
 ---L--------12--------|---9----------------|
 ----------------------|--------------------|
 ----------------------|--------------------|

[B] [B]  
 
 ----------------------|
 ---L--------17--------|
 ----------------------|
 ---L--------14--------|
 ----------------------|
 ----------------------|

Q H Q
 
 ------------------------|
 ---L----10---------L----|
 ------------------------|
 ---L-----7---------L----|
 ------------------------|
 ------------------------|

W
 
 --------------------|
 ---L----------------|
 --------------------|
 ---L----------------|
 --------------------|
 --------------------|

S S S S S S S S Q Q
 
 |---------------14-0-14---------|
 |-------------------------------|
 |*------------------------------|
 |*------------------------------|
 |-------------------------------|
 |-------------------------------|

S S S S Q S S S S Q
 
 ------14-0-14----14-15-14-0-------|
 ----------------------------12----|
 ----------------------------------|
 ----------------------------------|
 ----------------------------------|
 ----------------------------------|

S S S S S S S S Q Q
 
 --------------14-0-14---------|
 ------------------------------|
 ------------------------------|
 ------------------------------|
 ------------------------------|
 ------------------------------|

S S S S Q S S S S S S S S
 
 ------14-0-14----14--L--x-15--L-x-17--L-|
 ----------------------------------------|
 ----------------------------------------|
 ----------------------------------------|
 ----------------------------------------|
 ----------------------------------------|

S S S S S S S S Q Q
 
 --------------14-0-14---------|
 ------------------------------|
 ------------------------------|
 ------------------------------|
 ------------------------------|
 ------------------------------|

S S S S Q S S S S Q
 
 ------14-0-14----14-15-14-0-------|
 ----------------------------12----|
 ----------------------------------|
 ----------------------------------|
 ----------------------------------|
 ----------------------------------|

S S S S S S S S Q Q
 
 --------------14-0-14---------|
 ------------------------------|
 ------------------------------|
 ------------------------------|
 ------------------------------|
 ------------------------------|

S S S S Q S S S S S S S S
 
 ------14-0-14----14--L--x-15--L-x-17--L-|
 ----------------------------------------|
 ----------------------------------------|
 ----------------------------------------|
 ----------------------------------------|
 ----------------------------------------|

W W
 
 -------------------|--------------------||
 --0----------------|--L-----------------||
 --4----------------|--L----------------*||
 -------------------|-------------------*||
 -------------------|--------------------||
 -------------------|--------------------||

Q Q Q Q Q Q
 
 --0----L----L----|--L----L----L----|
 --0----L----L----|--L----L----L----|
 --0----L----L----|--L----L----L----|
 --0----L----L----|--L----L----L----|
 -----------------|-----------------|
 -----------------|-----------------|

Q Q Q Q Q Q
 
 --L----L----L----|--L----L----5----|
 --L----L----L----|--L----L----L----|
 --L----L----L----|--L----L----L----|
 --L----L----L----|--L----L----L----|
 -----------------|-----------------|
 -----------------|-----------------|

Q Q Q Q Q Q
 
 --6----L----L----|--L----L----L----|
 --L----L----L----|--L----L----L----|
 --L----L----L----|--L----L----L----|
 --L----L----L----|--L----L----L----|
 -----------------|-----------------|
 -----------------|-----------------|

Q Q Q Q Q Q
 
 --5----L----L----|-----------------|
 --L----L----L----|--L----L----L----|
 --L----L----L----|--L----L----L----|
 --L----L----L----|--L----L----L----|
 -----------------|-----------------|
 -----------------|-----------------|

[E] [E] [E] [E] [E] [E] [E] [E] [E] [E] [E] [E]  
 
 --------------10--7--|--------------10--7--|
 -----------8---------|-----------8---------|
 --7--9---------------|--7--9---------------|
 ---------------------|---------------------|
 --5--7--7------------|--5--7--7------------|
 ---------------------|---------------------|

[E] [E] [E] [E] [E] [E]  
 
 -----10--7-----10--7--|
 --8---------8---------|
 ----------------------|
 ----------------------|
 ----------------------|
 ----------------------|

[E] [E] [E] [E] [E] [E]  
 
 --14--10-----------------|
 ----------12--10--8--10--|
 -------------------------|
 -------------------------|
 -------------------------|
 -------------------------|

E E E T T S E E
 
 -----------5-7-5-------|
 -----8-----------8--5--|
 -----------------------|
 -----------------------|
 -----------------------|
 -----------------------|

E E E T T S E E
 
 -----------5-7-5-------|
 -----8-----------8--5--|
 -----------------------|
 -----------------------|
 -----------------------|
 -----------------------|

E E E T T S E E
 
 -----------5-7-5-------|
 -----8-----------8--5--|
 -----------------------|
 -----------------------|
 -----------------------|
 -----------------------|

[E] [E] [E] [E] [E] [E]  
 
 --14----------14----------|
 ------15--12------15--12--|
 --------------------------|
 --------------------------|
 --------------------------|
 --------------------------|

[E] [E] [E] [E] [E] [E] [E] [E] [E] [E] [E] [E]  
 
 --------------10--7--|--------------10--7--|
 -----------8---------|-----------8---------|
 --7--9---------------|--7--9---------------|
 ---------------------|---------------------|
 --5--7--7------------|--5--7--7------------|
 ---------------------|---------------------|

[E] [E] [E] [E] [E] [E]  
 
 -----10--7-----10--7--|
 --8---------8---------|
 ----------------------|
 ----------------------|
 ----------------------|
 ----------------------|

[E] [E] [E] [E] [E] [E]  
 
 --14--10-----------------|
 ----------12--10--8--10--|
 -------------------------|
 -------------------------|
 -------------------------|
 -------------------------|

E E E T T S E E
 
 -----------5-7-5-------|
 -----8-----------8--5--|
 -----------------------|
 -----------------------|
 -----------------------|
 -----------------------|

E E E T T S E E
 
 -----------5-7-5-------|
 -----8-----------8--5--|
 -----------------------|
 -----------------------|
 -----------------------|
 -----------------------|

E E E T T S E E
 
 -----------5-7-5-------|
 -----8-----------8--5--|
 -----------------------|
 -----------------------|
 -----------------------|
 -----------------------|

[E] [E] [E] [E] [E] [E]  
 
 --14----------14--------|
 ------15--12------------|
 ------------------------|
 ------------------------|
 ------------------------|
 ------------------------|

[E] [E] [E] [E] [E] [E] [E] [E] [E] [E] [E] [E]  
 
 --------------------|--------------------|
 --------------------|--------------------|
 --------------------|--------------------|
 --------------4-----|--------------4-----|
 --------2--5--------|--------2--5--------|
 --2--5--------------|--2--5--------------|

[E] [E] [E] [E] [E] [E] [E] [E] [E] [E] [E] [E]  
 
 --------------------|--------------------|
 --------------------|--------------------|
 --------------------|--------------------|
 --------------4-----|--------------4-----|
 --------2--5--------|--------2--5--------|
 --2--5--------------|--2--5--------------|

Q Q Q Q Q Q
 
 -----------------|-----------------|
 --8----L----L----|--7----L----L----|
 -----------------|-----------------|
 -----------------|-----------------|
 -----------------|-----------------|
 -----------------|-----------------|

Q Q Q Q Q Q
 
 -----------------|-----------------|
 -----------------|-----------------|
 --7----L----L----|--2----L----L----|
 -----------------|-----------------|
 -----------------|-----------------|
 -----------------|-----------------|

[E] [E] [E] [E] [E] [E] [E] [E] [E] [E] [E] [E]  
 
 --------------------|--------------------|
 --------------------|--------------------|
 --------------------|--------------------|
 --------------4-----|--------------4-----|
 --------2--5--------|--------2--5--------|
 --2--5--------------|--2--5--------------|

[E] [E] [E] [E] [E] [E] [E] [E] [E] [E] [E] [E]  
 
 --------------------|--------------------|
 --------------------|--------------------|
 --------------------|--------------------|
 --------------4-----|--------------4-----|
 --------2--5--------|--------2--5--------|
 --2--5--------------|--2--5--------------|

Q Q Q Q Q Q
 
 -----------------|-----------------|
 --8----L----L----|--7----L----L----|
 -----------------|-----------------|
 -----------------|-----------------|
 -----------------|-----------------|
 -----------------|-----------------|

Q Q Q Q Q Q
 
 -----------------|------------------|
 -----------------|--10--------------|
 --7----L----L----|--------L----L----|
 -----------------|------------------|
 -----------------|------------------|
 -----------------|------------------|

[E] [E] [E] [E] [E] [E] [E] [E] [E] [E] [E] [E]  
 
 --------------------|--------------------|
 --------------------|--------------------|
 --------------------|--------------------|
 --------------4-----|--------------4-----|
 --------2--5--------|--------2--5--------|
 --2--5--------------|--2--5--------------|

[E] [E] [E] [E] [E] [E] [E] [E] [E] [E] [E] [E]  
 
 --------------------|--------------------|
 --------------------|--------------------|
 --------------------|--------------------|
 --------------4-----|--------------4-----|
 --------2--5--------|--------2--5--------|
 --2--5--------------|--2--5--------------|

Q Q Q Q Q Q
 
 -----------------|-----------------|
 --8----L----L----|--7----L----L----|
 -----------------|-----------------|
 -----------------|-----------------|
 -----------------|-----------------|
 -----------------|-----------------|

Q Q Q Q Q Q
 
 -----------------|--------------------|
 -----------------|--10-----L-----L----|
 --7----L----L----|---------L-----L----|
 -----------------|--------------------|
 -----------------|--------------------|
 -----------------|--------------------|

[E] [E] [E] [E] [E] [E] [E] [E] [E] [E] [E] [E]  
 
 --------------------|--------------------|
 --------------------|--------------------|
 --------------------|--------------------|
 --------------4-----|--------------4-----|
 --------2--5--------|--------2--5--------|
 --2--5--------------|--2--5--------------|

[E] [E] [E] [E] [E] [E] [E] [E] [E] [E] [E] [E]  
 
 --------------------|--------------------|
 --------------------|--------------------|
 --------------------|--------------------|
 --------------4-----|--------------4-----|
 --------2--5--------|--------2--5--------|
 --2--5--------------|--2--5--------------|

Q Q Q Q Q Q
 
 -----------------|-----------------|
 --8----L----L----|--7----L----L----|
 -----------------|-----------------|
 -----------------|-----------------|
 -----------------|-----------------|
 -----------------|-----------------|

Q Q Q Q Q Q
 
 ------------------|---8-----L-----L----|
 --3----L----Ls----|--10-----L-----L----|
 ------------------|--------------------|
 ------------------|--------------------|
 ------------------|--------------------|
 ------------------|--------------------|

[E] [E] [E] [E] [E] [E] [E] [E] [E] [E] [E] [E]  
 
 |---------------------|--------------------|
 |---------------------|--------------------|
 |*--x--x--x--9--x--x--|--5--7--7--9--7--L--|
 |*--------------------|--------------------|
 |---------------------|--------------------|
 |---------------------|--------------------|

[E] [E] [E] [E] [E] [E] [E] [E] [E] [E] [E] [E]  
 
 --------------------|--------------------|
 --------------------|--------------------|
 --x--x--x--9--x--x--|--5--7--7--9--7--L--|
 --------------------|--------------------|
 --------------------|--------------------|
 --------------------|--------------------|

[E] [E] [E] [E] [E] [E] [E] [E] [E] [E] [E] [E]  
 
 --------------------|--------------------|
 --------------------|--------------------|
 --x--x--x--9--x--x--|--5--7--7--9--7--L--|
 --------------------|--------------------|
 --------------------|--------------------|
 --------------------|--------------------|

[E] [E] [E] [E] [E] [E] [E] [E] [E] [E] [E] [E]  
 
 --------------------|--------------------|
 --------------------|--------------------|
 --x--x--x--9--x--x--|--5--7--7--9--7--L--|
 --------------------|--------------------|
 --------------------|--------------------|
 --------------------|--------------------|

[E] [E] [E] [E] [E] [E] [E] [E] [E] [E] [E] [E]  
 
 --------------------|--------------------|
 --------------------|--------------------|
 --x--x--x--9--x--x--|--5--7--7--9--7--L--|
 --------------------|--------------------|
 --------------------|--------------------|
 --------------------|--------------------|

[E] [E] [E] [E] [E] [E] [E] [E] [E] [E] [E] [E]  
 
 --------------------|--------------------|
 --------------------|--------------------|
 --x--x--x--9--x--x--|--5--7--7--9--7--L--|
 --------------------|--------------------|
 --------------------|--------------------|
 --------------------|--------------------|

[E] [E] [E] [E] [E] [E] [E] [E] [E] [E] [E] [E]  
 
 --------------------|--------------------|
 --------------------|--------------------|
 --x--x--x--9--x--x--|--5--7--7--9--7--L--|
 --------------------|--------------------|
 --------------------|--------------------|
 --------------------|--------------------|

[E] [E] [E] [E] [E] [E] [E] [E] [E] [E] [E] [E]  
 
 --------------------|---------------------||
 --------------------|---------------------||
 --x--x--x--9--x--x--|--5--7--7--9--7--L--*||
 --------------------|--------------------*||
 --------------------|---------------------||
 --------------------|---------------------||

[E] [E] [E] [E] [E] [E] [E] [E] [E] [E] [E] [E]  
 
 --x--x--x--x--x--x--|--x--x--x--x--x--x--|
 --x--x--x--x--x--x--|--x--x--x--x--x--x--|
 --x--x--x--x--x--x--|--x--x--x--x--x--x--|
 --x--x--x--x--x--x--|--x--x--x--x--x--x--|
 --x--x--x--x--x--x--|--x--x--x--x--x--x--|
 --x--x--x--x--x--x--|--x--x--x--x--x--x--|
 -----|-----|-----|-----|-----|-----|-----|
 -----|-----|-----|-----|-----|-----|-----|
 -----|-----|-----|-----|-----|-----|-----|
 -----|-----|-----|-----|-----|-----|-----|
 -----|-----|-----|-----|-----|-----|-----|
 -----|-----|-----|-----|-----|-----|-----|

Q Q Q
 
 -----|-----|------------5/----|
 -----|-----|------------------|
 -----|-----|------------------|
 -----|-----|------------------|
 -----|-----|------------------|
 -----|-----|------------------|

S S S S S S S S S S S S
 
 --10-10-10-10-10-10-10-10-10-10-10-10-|
 --------------------------------------|
 --------------------------------------|
 --------------------------------------|
 --------------------------------------|
 --------------------------------------|

S S S S S S S S S S S S
 
 --7-7-7-7-7-7-8-8-8-8-8-8-|
 --------------------------|
 --------------------------|
 --------------------------|
 --------------------------|
 --------------------------|

S S S S S S S S S S S S
 
 --7-7-7-7-7-7-3-3-3-3-3-3-|
 --------------------------|
 --------------------------|
 --------------------------|
 --------------------------|
 --------------------------|

S S S S S S S S S S S S
 
 --0-0-0-0-0-0-0-0-0-0-0-0-|
 --------------------------|
 --------------------------|
 --------------------------|
 --------------------------|
 --------------------------|

S S S S S S S S S S S S
 
 --10-10-10-10-10-10-10-10-10-10-10-10-|
 --------------------------------------|
 --------------------------------------|
 --------------------------------------|
 --------------------------------------|
 --------------------------------------|

S S S S S S S S S S S S
 
 --7-7-7-7-7-7-8-8-8-8-8-8-|
 --------------------------|
 --------------------------|
 --------------------------|
 --------------------------|
 --------------------------|

S S S S S S S S S S S S
 
 --7-7-7-7-7-7-15-15-15-15-15-15-|
 --------------------------------|
 --------------------------------|
 --------------------------------|
 --------------------------------|
 --------------------------------|

S S S S S S S S S S S S
 
 --13-13-13-13-13-13-12-12-12-12-12-12-|
 --------------------------------------|
 --------------------------------------|
 --------------------------------------|
 --------------------------------------|
 --------------------------------------|

S S S S S S S S S S S S
 
 --15-15-15-15-15-15-8-8-8-8-8-8-|
 --------------------------------|
 --------------------------------|
 --------------------------------|
 --------------------------------|
 --------------------------------|

S S S S S S S S S S S S
 
 --7-7-7-7-7-7-7-7-7-7-7-7-|
 --------------------------|
 --------------------------|
 --------------------------|
 --------------------------|
 --------------------------|

S S S S S S S S S S S S
 
 --12-12-12-12-12-12-8-8-8-8-7-7-|
 --------------------------------|
 --------------------------------|
 --------------------------------|
 --------------------------------|
 --------------------------------|

S S S S S S S S S S S S
 
 --5-5-5-5-5-5-7-7-7-7-7-7-|
 --------------------------|
 --------------------------|
 --------------------------|
 --------------------------|
 --------------------------|

S S S S S S S S S S S S
 
 --15-15-15-15-15-15-8-8-8-8-8-8-|
 --------------------------------|
 --------------------------------|
 --------------------------------|
 --------------------------------|
 --------------------------------|

S S S S S S S S S S S S
 
 --7-7-7-7-7-7-7-7-7-7-7-7-|
 --------------------------|
 --------------------------|
 --------------------------|
 --------------------------|
 --------------------------|

S S S S S S S S S S S S
 
 --12-12-12-12-12-12-8-8-8-8-7-7-|
 --------------------------------|
 --------------------------------|
 --------------------------------|
 --------------------------------|
 --------------------------------|

S S S S S S S S S S S S Q Q Q
 
 --5-5-5-5-5-5-7-7-7-7-7-7-|-----------------|
 --------------------------|--3----L----L----|
 --------------------------|-----------------|
 --------------------------|-----------------|
 --------------------------|-----------------|
 --------------------------|-----------------|

Q Q Q
 
 -----------------|-------||
 --L----L---------|-------||
 ------------L----|-------||
 -----------------|-------||
 -----------------|-------||
 -----------------|-------||

NASA
Dance Gavin Dance
Zac Garren
[E] [E] [E] [E] [E] [E] [E] [E] [E] [E] [E] [E]  
 
 E||--x--x--x--x--x--x--|--x--x--x--x--x--x--|
 B||--x--x--x--x--x--x--|--x--x--x--x--x--x--|
 G||--x--x--x--x--x--x--|--x--x--x--x--x--x--|
 D||--x--x--x--x--x--x--|--x--x--x--x--x--x--|
 A||--x--x--x--x--x--x--|--x--x--x--x--x--x--|
 D||--x--x--x--x--x--x--|--x--x--x--x--x--x--|

E S E S E S S E
 
 --------12----14----------|
 --12--x-----x-----x-x-15--|
 --------------------------|
 --------------------------|
 --------------------------|
 --------------------------|

E S E S E S S E
 
 --------12----14----------|
 --12--x-----x-----x-x-15--|
 --------------------------|
 --------------------------|
 --------------------------|
 --------------------------|

E S E S E S S E
 
 --------12----14----------|
 --12--x-----x-----x-x-15--|
 --------------------------|
 --------------------------|
 --------------------------|
 --------------------------|

S S S S S S S S S S S S
 
 ----------------------------|
 --8-0-0-10-0-0-8-0-0-10-0-0-|
 ----------------------------|
 ----------------------------|
 ----------------------------|
 ----------------------------|

E S E S E S S E
 
 --------12----14----------|
 --12--x-----x-----x-x-15--|
 --------------------------|
 --------------------------|
 --------------------------|
 --------------------------|

E S E S E S S E
 
 --------12----14----------|
 --12--x-----x-----x-x-15--|
 --------------------------|
 --------------------------|
 --------------------------|
 --------------------------|

E S E S E S S E
 
 --------12----14----------|
 --12--x-----x-----x-x-15--|
 --------------------------|
 --------------------------|
 --------------------------|
 --------------------------|

S S S S S S S S S S S S
 
 ----------------------------|
 --8-0-0-10-0-0-8-0-0-10-0-0-|
 ----------------------------|
 ----------------------------|
 ----------------------------|
 ----------------------------|

E S E S E S S E
 
 --------12----14----------|
 --12--x-----x-----x-x-15--|
 --------------------------|
 --------------------------|
 --------------------------|
 --------------------------|

E S E S E S S E
 
 --------12----14----------|
 --12--x-----x-----x-x-15--|
 --------------------------|
 --------------------------|
 --------------------------|
 --------------------------|

E S E S E S S E
 
 --------12----14----------|
 --12--x-----x-----x-x-15--|
 --------------------------|
 --------------------------|
 --------------------------|
 --------------------------|

S S S S S S S S S S S S
 
 ----------------------------|
 --8-0-0-10-0-0-8-0-0-10-0-0-|
 ----------------------------|
 ----------------------------|
 ----------------------------|
 ----------------------------|

E S E S E S S E
 
 --------12----14----------|
 --12--x-----x-----x-x-15--|
 --------------------------|
 --------------------------|
 --------------------------|
 --------------------------|

E S E S E S S E
 
 --------12----14----------|
 --12--x-----x-----x-x-15--|
 --------------------------|
 --------------------------|
 --------------------------|
 --------------------------|

E S E S E S S E
 
 --------12----14----------|
 --12--x-----x-----x-x-15--|
 --------------------------|
 --------------------------|
 --------------------------|
 --------------------------|

S S S S S S S S S S S S
 
 ----------------------------|
 --8-0-0-10-0-0-8-0-0-10-0-0-|
 ----------------------------|
 ----------------------------|
 ----------------------------|
 ----------------------------|

E S E S E S S E
 
 --------12----14----------|
 --12--x-----x-----x-x-15--|
 --------------------------|
 --------------------------|
 --------------------------|
 --------------------------|

E S E S E S S E
 
 --------12----14----------|
 --12--x-----x-----x-x-15--|
 --------------------------|
 --------------------------|
 --------------------------|
 --------------------------|

E S E S E S S E
 
 --------12----14----------|
 --12--x-----x-----x-x-15--|
 --------------------------|
 --------------------------|
 --------------------------|
 --------------------------|

S S S S S S S S S S S S
 
 ----------------------------|
 --8-0-0-10-0-0-8-0-0-10-0-0-|
 ----------------------------|
 ----------------------------|
 ----------------------------|
 ----------------------------|

E S E S E S S E
 
 --------12----14----------|
 --12--x-----x-----x-x-15--|
 --------------------------|
 --------------------------|
 --------------------------|
 --------------------------|

E S E S E S S E
 
 --------12----14----------|
 --12--x-----x-----x-x-15--|
 --------------------------|
 --------------------------|
 --------------------------|
 --------------------------|

E S E S E S S E
 
 --------12----14----------|
 --12--x-----x-----x-x-15--|
 --------------------------|
 --------------------------|
 --------------------------|
 --------------------------|

S S S S S S S S S S S S
 
 ----------------------------|
 --8-0-0-10-0-0-8-0-0-10-0-0-|
 ----------------------------|
 ----------------------------|
 ----------------------------|
 ----------------------------|

Q Q Q
 
 --------------------|
 --12-----L-----L----|
 --------------------|
 --------------------|
 --------------------|
 --------------------|

S S S S S S S S S S S S S S S S
 
 |-----------------------------------|
 |---5-5-5-------5-5-5-------5-5-5---|
 |*--5-5-5-------5-5-5-------5-5-5---|
 |*----------------------------------|
 |-----------------------------------|
 |-----------------------------------|

E S S S S S S S S S S S S S S
 
 ---------------------------------|
 -----5-5-5-------5-5-5---5-5-5---|
 -----5-5-5-------5-5-5---5-5-5---|
 ---------------------------------|
 ---------------------------------|
 ---------------------------------|

S S S S S S S S S S S S S S S S
 
 ----------------------------------|
 --5-5-5-------5-5-5-------5-5-5---|
 --5-5-5-------5-5-5-------5-5-5---|
 ----------------------------------|
 ----------------------------------|
 ----------------------------------|

E S S S S S S S S S S S S S S
 
 ---------------------------------|
 -----5-5-5-------5-5-5---5-5-5---|
 -----5-5-5-------5-5-5---5-5-5---|
 ---------------------------------|
 ---------------------------------|
 ---------------------------------|

S S S S S S S S S S E S S S S
 
 ---------------------------------|
 --5-5-5-5-5-5-5-5-5------5-5-5-5-|
 --4-4-4-4-4-4-4-4-4------4-4-4-4-|
 ---------------------------------|
 ---------------------------------|
 ---------------------------------|

S S S S S S E S S S S S S S S
 
 ---------------------------------|
 --5-5-5-5-5------5-5-----5-5-----|
 --4-4-4-4-4------4-4-----4-4-----|
 ---------------------------------|
 ---------------------------------|
 ---------------------------------|

S S S S S S S S S S E S S S S
 
 ---------------------------------|
 --5-5-5-5-5-5-5-5-5------5-5-5-5-|
 --4-4-4-4-4-4-4-4-4------4-4-4-4-|
 ---------------------------------|
 ---------------------------------|
 ---------------------------------|

S S S S S S E S S S S S S S S
 
 ----------------------------------||
 --5-5-5-5-5------5-5-----5-5------||
 --4-4-4-4-4------4-4-----4-4-----*||
 ---------------------------------*||
 ----------------------------------||
 ----------------------------------||

[E] [E] [E] [E] [E] [E] [E] [E]  
 
 --------------------------|
 --5--5--5--5--5--5--5--5--|
 --5--5--5--5--5--5--5--5--|
 --------------------------|
 --------------------------|
 --------------------------|

[E] [E] [E] [E] [E] [E] [E] [E]  
 
 --------------------------|
 --5--5--5--5--5--5--5--5--|
 --5--5--5--5--4--5--4--5--|
 --------------------------|
 --------------------------|
 --------------------------|

[E] [E] [E] [E] [E] [E] [E] [E]  
 
 --------------------------|
 --0--0--0--0--0--0--0--0--|
 --4--4--4--4--4--4--4--4--|
 --------------------------|
 --------------------------|
 --------------------------|

[E] [E] [E] [E] [E] [E] [E] [E]  
 
 --------------------------|
 --0--0--0--0--0--0--0--0--|
 --4--4--4--4--4--5--4--5--|
 --------------------------|
 --------------------------|
 --------------------------|

[E] [E] [E] [E] [E] [E] [E] [E]  
 
 --------------------------|
 --5--5--5--5--5--5--5--5--|
 --5--5--5--5--5--5--5--5--|
 --------------------------|
 --------------------------|
 --------------------------|

[E] [E] [E] [E] [E] [E] [E] [E]  
 
 --------------------------|
 --5--5--5--5--5--5--5--5--|
 --5--5--5--5--4--5--4--5--|
 --------------------------|
 --------------------------|
 --------------------------|

[E] [E] [E] [E] [E] [E] [E] [E]  
 
 --------------------------|
 --0--0--0--0--0--0--0--0--|
 --4--4--4--4--4--4--4--4--|
 --------------------------|
 --------------------------|
 --------------------------|

[E] [E] [E] [E] [E] [E] [E] [E]  
 
 --------------------------|
 --0--0--0--0--0--0--0--0--|
 --4--4--4--4--4--5--4--5--|
 --------------------------|
 --------------------------|
 --------------------------|

S S S S S S S S S S S S S S S S
 
 |-----------------------------------|
 |---5-5-5-------------------5-5-5---|
 |*--5-5-5-------------------5-5-5---|
 |*----------------------------------|
 |---3-3-3-------------------3-3-3---|
 |-----------------------------------|

H S S S S S S S S
 
 ---------------------------|
 -----------5-5-5-5-5-5-5-5-|
 -----------5-5-5-5-5-5-5-5-|
 ---------------------------|
 -----------3-3-3-3-3-3-3-3-|
 ---------------------------|

S S S S S S S S S S S S S S S S
 
 ----------------------------------|
 --5-5-5-------------------5-5-5---|
 --5-5-5-------------------5-5-5---|
 ----------------------------------|
 --3-3-3-------------------3-3-3---|
 ----------------------------------|

H S S S S S S S S
 
 ---------------------------|
 -----------5-L-x-5-L-x-5-L-|
 -----------5-L-x-5-L-x-5-L-|
 ---------------x-----x---L-|
 -----------3-L-x-3-L-x-3-L-|
 ---------------------------|

S S S S S S S S S S S S S S S S
 
 ----------------------------------|
 --5-5-5-------------------5-5-5---|
 --5-5-5-------------------5-5-5---|
 ----------------------------------|
 --3-3-3-------------------3-3-3---|
 ----------------------------------|

H S S S S S S S S
 
 ---------------------------|
 -----------5-5-5-5-5-5-5-5-|
 -----------5-5-5-5-5-5-5-5-|
 ---------------------------|
 -----------3-3-3-3-3-3-3-3-|
 ---------------------------|

S S S S S S S S S S S S S S S S
 
 ----------------------------------|
 --5-5-5-------------------5-5-5---|
 --5-5-5-------------------5-5-5---|
 ----------------------------------|
 --3-3-3-------------------3-3-3---|
 ----------------------------------|

H S S S S S S S S
 
 ---------------------------|
 -----------5-L-x-5-L-x-5-L-|
 -----------5-L-x-5-L-x-5-L-|
 ---------------x-----x---L-|
 -----------3-L-x-3-L-x-3-L-|
 ---------------------------|

[E] [E] [E] [E] [E] [E] [E] [E]  
 
 --------------------------|
 --------------------------|
 --4--L--L--5--4--L--L--5--|
 --------------------------|
 --------------------------|
 --------------------------|

[E] [E] [E] [E] [E] [E] [E] [E]  
 
 ---------------------------||-----|-----|
 ---------------------------||-----|-----|
 --4--L--L--5--4--L--L--5--*||-----|-----|
 --------------------------*||-----|-----|
 ---------------------------||-----|-----|
 ---------------------------||-----|-----|

[E] [E] [E] [E] [E] [E]  
 
 -----|-----|--------------------|
 -----|-----|--------------------|
 -----|-----|--------------------|
 -----|-----|--------------------|
 -----|-----|--------------------|
 -----|-----|--1--0--1--0--1--0--|

[E] [E] [E] [E] [E] [E] [E] [E] [E] [E] [E] [E]  
 
 --------------------|--------------------|
 --------------------|--------------------|
 --------------------|--------------------|
 --------------------|--------------------|
 --------------------|--------------------|
 --1--0--1--0--1--0--|--1--0--1--0--1--0--|

[E] [E] [E] [E] [E] [E] [E] [E] [E] [E] [E] [E]  
 
 --------------------|--------------------|
 --------------------|--------------------|
 --------------------|--------------------|
 --------------------|--5--5--------------|
 --------------------|--7--7--x--x--x--x--|
 --1--0--1--0--1--0--|--------------------|

[E] [E] [E] [E] [E] [E] [E] [E] [E] [E] [E] [E]  
 
 --------------------|--------------------|
 --------------------|-------------

Important: The song above is NOT stored on the Chordie server. The original song is hosted at www.guitaretab.com. Chordie works as a search engine and provides on-the-fly formatting. Chordie does not index songs against artists'/composers' will. To remove this song please click here.

Text color:
Chord color:
Chord grids: 
Font size:    
Page size: 

B E
Rate #1 of 2 versions

Jango Player

Login - add to songbook

SHARE PAGE  




You need to log in to post comments