Guitar Tabs, Chords and Lyrics
Update 25:10. 13:00. Site is back up running again. Songbooks are recovered. Woring on getting search back up..


Wale (tanto wale)   Dari

 
 G|-------------------------------------------------------------------------|
 D|--------------------------------------------------3333-------------------|
 A|-------------------11111111-44444444-------------3-----11111111-44444444-|
 E|-22222222-11111111-------------------22222222-111------------------------|

 


 


 Verse


 "Wale come stai..." its on synth but you can do it on bass


 2.


 

 
 G|---6---6---6---6---6---6---6---6-|
 D|---------------------------------|
 A|-4---4---4---4---4---4---4---4---|
 E|---------------------------------|

 


 


 Chorus


 "Perche quel che wale..."


 3.


 

 
 G|-------------------------------------------------------------------------|
 D|--------------3333-------------------------------------------------------|
 A|-------------3-----11111111-44444444-------------------11111111----------|
 E|-22222222-111------------------------22222222-11111111----------44444444-|

 


 


 "Perche quel che wale..."


 4.


 

 
 G|-------------------------------------|
 D|-------------------------------------|
 A|-66666666----------------------------|
 E|----------11111111-22222222-44444444-|

 


 


 1:27


 Chorus


 "Per te quel che wale..."


 5.


 

 
 G|-------------------------------------------------------------------------|
 D|--------------------------------------------------3333-------------------|
 A|-------------------11111111-44444444-------------3-----11111111-44444444-|
 E|-22222222-11111111-------------------22222222-111------------------------|

 


 


 "Il cellulare ce l'ho gia spento..."


 6.


 

 
 G|-------------------------------------------------------------------------|
 D|-------------------------------------------------------------------------|
 A|-------------------11111111----------66666666----------------------------|
 E|-22222222-11111111----------44444444----------11111111-22222222-44444444-|

 


 


 Bridge


 "Non mi inporta perche..."


 7.


 

 
 G|------------------------------------------------------------|
 D|------------------------------------------------------------|
 A|-44444444-66666666------------------------------------------|
 E|-------------------22222222-11111111-11111111-11111x--------|

 


 


 8.


 

 
 G|-------------------------------------------------------------------------|
 D|--------------------------------------------------3333-------------------|
 A|-------------------11111111-44444444-------------3-----11111111-44444444-|
 E|-22222222-11111111-------------------22222222-111------------------------|

 


 


 Chorus


 "Per te quel che wale..."


 9.


 

 
 G|-------------------------------------------------------------------------|
 D|--------------------------------------------------3333-------------------|
 A|-------------------11111111-44444444-------------3-----11111111-44444444-|
 E|-22222222-11111111-------------------22222222-111------------------------|

 


 


 "Il cellulare ce l'ho gia spento..."


 10.


 

 
 G|-------------------------------------------------------------------------|
 D|-------------------------------------------------------------------------|
 A|-------------------11111111----------66666666----------------------------|
 E|-22222222-11111111----------44444444----------11111111-22222222-44444444-|


Important: The song above is NOT stored on the Chordie server. The original song is hosted at www.guitaretab.com. Chordie works as a search engine and provides on-the-fly formatting. Chordie does not index songs against artists'/composers' will. To remove this song please click here.

This song is displayed as text-only. Transposing and tuning is only available for chordpro-songs.
Rate #0 of 2 versions

Login - add to songbook

SHARE PAGE  




You need to log in to post comments