Guitar Tabs, Chords and Lyrics
Update 25:10. 13:00. Site is back up running again. Songbooks are recovered. Woring on getting search back up..


Everybody Have a Good Time  The Darkness

 
 -------------------------------------------------------------------------------

Everybody have a good time - The Darkness
 
 -------------------------------------------------------------------------------

Tabbed by: huetterth
E-mail: A-pumpkin(sign)web.de
Tuning: EADGHE
A x02220
D/A x04230
A9 x05450
G 320022
D/F# 20023x
Em7 022030
Intro: A D/A A G D/F# Em7 (2x)
D Dsus4 D G D/F# Em7 (2x)
Verse 1:
[A] An[D/A]ticipa[A]tion, t[G]oo [D/F#]much to [Em7]pay
[A] Ma[D/A]ybe I'[A]m crazy, but there's s[G]omet[D/F#]hing [Em7]in the
a[D]ir,[Dsus4] [D] there's so[G]met[D/F#]hing [Em7]in the
a[D]ir,[Dsus4] [D] [G]ah [D/F#] [Em7]
[A] C[D/A]ome on pe[A]ople te[G]ll me [D/F#]how you [Em7]feel
Y[A]ou w[D/A]ant a g[A]ood time, well you g[G]ot [D/F#]yourse[Em7]lf a
d[D]eal[Dsus4], [D] oh yeah, you g[G]ot [D/F#]yours[Em7]elf a
d[D]eal[Dsus4] [D] uuhhhh[G] [D/F#] [Em7]
Pre-Chorus:
[A] It's time to make, [D/A] a brand new start
[A9] Take off your thinking, gotta li[A]sten to your heart
Chorus:
[G] [D/F#] [Em7] [D/F#] [G] [A] [(D/A] [A)]  
 
 Eve---ry---bo---dy have a good time 

[G] [D/F#] [Em7] [D/F#] [G] [A] [(D/A] [A)]  
 
 Eve---ry---bo---dy have a blast, alright 

E[D]verybody h[G]ave a g[A]ood[(D/A] time [A)]
For ton[Em]ight[D/F#] [G] may be our l[A]ast, alright [G]
Verse 2:
Y[A]ou th[D/A]ing you're co[A]ol, wel[G]l I'm [D/F#]not so [Em7]sure
[A] C[D/A]ome on b[A]aby, leave your [G]e--[D/F#]-go a[Em7]t the
d[D]oor[Dsus4], [D] cause you don't n[G]eed[D/F#] it an[Em7]ymore
[D] [Dsus4] [D] wh[G]oa [D/F#] [Em7]
Pre-Chorus:
W[A]here is all this fig[D/A]hting getting us?
W[A9]here is the fire baby, wh[A]at's the fuss?
Chorus:
[G] [D/F#] [Em7] [D/F#] [G] [A] [(D/A] [A)]  
 
 Eve---ry---bo---dy have a good time 

[G] [D/F#] [Em7] [D/F#] [G] [A] [(D/A] [A)]  
 
 Eve---ry---bo---dy have a blast, alright 

E[D]verybody h[G]ave a g[A]ood[(D/A] time [A)]
For ton[Em]ight [G] may be our l[A]ast
Yeah to[Em]night [G] may be our l[A]ast[G]
Solo: A D/A A G D/F# Em7 (2x)
D Dsus4 D G D/F# Em7 (2x)
A D/A A G D/F# Em7 (2x)
D Dsus4 D G D/F# Em7 (2x)
Pre-Chorus:
[A] Where fools rush in,[D/A] where eagles dare
[A9] You will find us [D/A] already there
[A] We live the same dream,[D/A] every night
[A9] Having a good time till the mor[A]ning light
Chorus:
[G] [D/F#] [Em7] [D/F#] [G] [A] [(D/A] [A)]  
 
 Eve---ry---bo---dy have a good time 

[G] [D/F#] [Em7] [D/F#] [G] [A] [(D/A] [A)]  
 
 Eve---ry---bo---dy have a blast, alright 

E[D]verybody h[G]ave a g[A]ood[(D/A] time [A)]
For ton[Em]ight [G] may be our l[A]ast
Yeah to[Em]night [G] may be our l[A]ast
Outro: (A)
 
 e|---------------------------------------------------------------------------|
 B|---------------2------------------2------------------2------------------2--|
 G|---------------2------------------2------------------2------------------2--|
 D|-------5-------2----------5-------2----------5-------2----------5-------2--|
 A|--3-4-----3-4--0-----3-4-----3-4--0-----3-4-----3-4--0-----3-4-----3-4--0--|
 E|---------------------------------------------------------------------------|
 e|----------------------------------------------------------------------...--|
 B|---------------2--2--3--2----3--2------------------2--2--3--2----3--2-...--|
 G|---------------2--2--2--2----2--2------------------2--2--2--2----2--2-...--|
 D|-------5-------2--2--4--2----4--2----------5-------2--2--4--2----4--2-...--|
 A|--3-4-----3-4--0--0--0--0----0--0-----3-4-----3-4--0--0--0--0----0--0-...--|
 E|----------------------------------------------------------------------...--|


Important: The song above is NOT stored on the Chordie server. The original song is hosted at www.guitaretab.com. Chordie works as a search engine and provides on-the-fly formatting. Chordie does not index songs against artists'/composers' will. To remove this song please click here.

Text color:
Chord color:
Chord grids: 
Font size:    
Page size: 

A A9 D D/F# Dsus4 Em Em7 G
Rate #1 of 2 versions

Login - add to songbook

SHARE PAGE  



You need to log in to post comments