Guitar Tabs, Chords and Lyrics
Major upgrade!! After one year development the new version of Chordie is now online! Please give feedback.


If You Canâ??t Leave It Be, Might as Well Make It Bleed   Dashboard Confessional

 
 eb|--0--0---|
 Bb|--0--0---|
 Gb|--1--8---|
 Db|--2--8---|
 Ab|--2--6---|
 Eb|--0--0---| 

 


 


 [ after-verse ] 


 

 
 eb|--0--0--0---|
 Bb|--0--0--0---|
 Gb|--9--6--4---|
 Db|--7--7--2---|
 Ab|--5--4--3---|
 Eb|--0--x--x---| 

 


 


 [ bridge ] 


 


 i: palm muted


 

 
 eb|-------------|
 Bb|-------------|
 Gb|--1-2-2-4----|
 Db|--2-4-4-2----|
 Ab|--2-3-4-3----|
 Eb|--0----------| 

 


 


 ii:


 

 
 eb|-0-0-0-0---|
 Bb|-0-0-0-0---|
 Gb|-1-2-2-4---|
 Db|-2-4-4-2---|
 Ab|-2-3-4-3---|
 Eb|-0-x-x-x---| 


Important: The song above is NOT stored on the Chordie server. The original song is hosted at www.guitaretab.com. Chordie works as a search engine and provides on-the-fly formatting. Chordie does not index songs against artists'/composers' will. To remove this song please click here.

This song is displayed as text-only. Transposing and tuning is only available for chordpro-songs.
Rate #1 of 3 versions

Login - add to songbook

SHARE PAGE  




You need to log in to post comments