Guitar Tabs, Chords and Lyrics
Major upgrade!! After one year development the new version of Chordie is now online! Please give feedback.


Currents  Dashboard Confessional

By Dashboard Confessional
From the album Dusk and Summer.
Tabbed by Carl C. (CCon2284@yahoo.com)
WARNING: This is the first song I ever tried to tab out.
I know this isn't done, however I noticed there were no tabs for this song, so this is
I got, there sounds like there is much more going on here, hopefully someone with more
can pick this up, and complete it, for now a simplified version...
Key of B Major
Intro RIFF
 
 E|-------14------14------14--------|
 B|---12------12------12------14----|
 G|---------------------------------|
 D|---------------------------------|
 A|---------------------------------|
 E|---------------------------------|

Major Riff 1
 
 |----------------------------------|
 |----------------------------------|
 |----------8--11-----11------------|
 |---9--11---------9----------------|
 |----------------------------------|
 |----------------------------------|

Major RIFF 2
 
 E|-----------------|
 B|--------4h5p4----|
 G|----4/6----------|
 D|-----------------|
 A|-----------------|
 E|-----------------|

CHORDS: EADGBE
Bsus4 X24400
F#m7add11 244300
[F#]Asus2 [244322]002200
E 022100
[G#m]C#m [466444]X46650
INTRO:
INTRO RIFF
 
 E|-------14------14------14--------|
 B|---12------12------12------14----|
 G|---------------------------------|
 D|---------------------------------|
 A|---------------------------------|
 E|---------------------------------|

and then...
Major Riff 1
 
 |----------------------------------|
 |----------------------------------|
 |----------8--11-----11------------|
 |---9--11---------9----------------| x2
 |----------------------------------|
 |----------------------------------|

[Bsus4] [F#m7add11] [Asus] [E]  
[Bsus4] [F#m7add11] [Asus] [E]  
Verse 1:
Bsus4 F#(barred) Asus
The air is visible around you, rising up and off your lips in slow currents
And i watch as your f[E]ace is framed in its s[Bsus4]low currents
F#(barred)
Drifting curls a trailing path
A long d[Asus]rag becomes a dr[E]ess of blue and ash
1st CHORUS:
 
 |----------------------------------|
 |----------------------------------|
 |----------8--11-----11------------|
 |---9--11---------9----------------|
 |----------------------------------|
 |----------------------------------|

[Bsus4]If it is born in f[E]lames then we should let it bu[G#m]rn
Burn as b[E]rightly as we can
[Bsus4]And if its gotta e[E]nd then let it end in [G#m]flames
Let it b[E]urn all the way [Bsus4]down.
 
 E|-----------------|
 B|--------4h5p4----|
 G|----4/6----------|
 D|-----------------|
 A|-----------------|
 E|-----------------|

Verse 2:
[Bsus4]The air is visible around us, turning [F#]in it's simple ste[Asus]ps on slow currents
And i watch as it pir[E]ouettes and spins in s[Bsus4]loooooow [F#]mo-tion
A long d[Asus]rag becomes a sl[E]ow dance
[G#m]in a halo...[E]of ember.
2nd CHORUS:
 
 |----------------------------------|
 |----------------------------------|
 |----------8--11-----11------------|
 |---9--11---------9----------------|
 |----------------------------------|
 |----------------------------------|

[Bsus4]If it is born in f[E]lames then we should let it bu[G#m]rn
Burn as b[E]rightly as we can
[Bsus4]And if its gotta e[E]nd then let it end in [G#m]flames
Let it b[E]urn all the way [Asus]down.
{...At the word "down" from that last line major riff 1 ends and major riff 2 starts up
and continues...}
Bridge:
[Bsus4]All the way down
[Asus]And if this is ever meant to end, then i h[Bsus4]ope it ends where it began
[Asus]So hot with love, we burned our hands
[Bsus4]If this is ever meant to end, then i h[Asus]ope it ends where it began
[C#m] [E] [F#m7add11] 

Important: The song above is NOT stored on the Chordie server. The original song is hosted at www.guitaretab.com. Chordie works as a search engine and provides on-the-fly formatting. Chordie does not index songs against artists'/composers' will. To remove this song please click here.

Text color:
Chord color:
Chord grids: 
Font size:    
Page size: 

Asus Bsus4 C#m E F# G#m
Rate #0 of 3 versions

Jango Player

Login - add to songbook

SHARE PAGE  




You need to log in to post comments