Guitar Tabs, Chords and Lyrics
Major upgrade!! After one year development the new version of Chordie is now online! Please give feedback.


Stay  David Bowie

(: Am7 G9 G9 :)
 
 E----------------------------------------101010--101010-- INTRO 1
 B-----------------555--------------------101010--101010-- repeat 4 times
 G-----------------555--------------------101010--101010--
 D-5p7-7-7-5p7-7-7------5p7-7-7-5p7-7-7-5-9-9-9---9-9-9---
 A-0--------------------0-----------------101010--101010--
 E--------------------------------------------------------

(: Am7 G9 G9 :)
 
 E----------------------------------------101010--101010-- INTRO 2
 B----------------------------------------101010--101010-- repeat 5 times
 G-----------------5b---------------------101010--101010--
 D-----7---5---7----------7---5---7---5---9-9-9---9-9-9---
 A----------------------------------------101010--101010--
 E--------------------------------------------------------

[G9] This week dragged past me so slowly
The [A9]days fell on their knees.
[C9] Maybe I`ll take something to help me;
[F9] hope someone takes after me.
[G9]I guess their`s always a change in the weather.
[A9]This time I know we could get it together.
[C9]If I did casually mention tonight,
[F9] that would be crazy tonight.
[Am9]Stay._____________ That`s what I meant to say_
[Fmaj9]or do something.
But what I never say is[E7sus4] stay this time.
I really meant to so bad[E7] ly this time.
[Fmaj9]Cause you can never really tell when [G9]somebody
wants something [Em9/A]you want too.____[G9] [G9]
INTRO 2 (3 times)
[G9]Heart wrecker, heart wrecker, make me delight.
[A9]Night is so vague when it brings someone new.
[C9]This time tomorrow I`ll know what to do.
[F9] I know it`s happened to you.
[Am9]Stay______That`s what I meant to say
[Fmaj9]or do something.
But what I never say is[E7sus4] stay this time.
I really meant to so bad[E7] ly this time.
[Fmaj9]Cause you can never really tell when[G9] somebody
Wants something or wants to [Am9]stay______
That`s what I meant to say [Fmaj9]or do something.
But what I never say is[E7sus4] stay this time.
I really meant to so bad[E7] ly this time.
[Fmaj9]Cause you can never really tell when[G9] somebody
wants something [Em9/A]you want too.___[G9] [G9]
INTRO 1 (3 times)
INTRO 2 (repeat and fade)
 
 ----------------------

Am7 = [E]* [A]0 [D]2 [G]0 [B]1 [E]0
G9 = 3 * 0 2 0 0
G9 = * 10 9 10 10 10
A9 = * 12 11 12 12 12
C9 = * 3 2 3 3 3
F9 = * 8 7 8 8 8
Am9 = * 0 5 5 5 7
Fmaj9 = * * 3 5 5 3
E7sus4 = 0 2 0 2 0 0
E7 = 0 2 0 1 0 0
Em9/A = * 0 5 4 3 2

Important: The song above is NOT stored on the Chordie server. The original song is hosted at www.guitaretab.com. Chordie works as a search engine and provides on-the-fly formatting. Chordie does not index songs against artists'/composers' will. To remove this song please click here.

Text color:
Chord color:
Chord grids: 
Font size:    
Page size: 

A B D E E7 E7sus4 Fmaj9 G
Rate #2 of 3 versions

Jango Player

Login - add to songbook

SHARE PAGE  




You need to log in to post comments