Guitar Tabs, Chords and Lyrics
Major upgrade!! After one year development the new version of Chordie is now online! Please give feedback.


Space Oddity  David Bowie

 
 -------------------------------------------------------------------------------

Space Oddity - David Bowie
 
 -------------------------------------------------------------------------------

Tabbed by: tom murphy
Why: because no one has it right here
Tuning: standard
Any weird chords:
 
 e|--0-----0-----0-----0-----0-----0-----|
 B|--3-----3-----1-----1-----0-----1-----|
 G|--2-----1-----2-----2-----2-----0-----|
 D|--0-----0-----3-----2-----2-----2-----|
 A|--0-----2-----x-----0-----0-----3-----|
 E|--2-----0-----x-----3-----0-----3-----|

[Dadd9] [E7] [Fmaj7] [Am/G]  
 
 ---------------------------------------------------------------

[Fmaj7] [Em] [Fmaj7] [Em]  
[C]Ground Control to Major [Em]Tom
[C]Ground Control to Major [Em]Tom
[Am]Take your [Am/G]protein pills
and [Dadd9]put your helmet on
[C]Ground Control to Major [Em]Tom
[C]Commencing countdown,
engines[Em] on
[Am]Check i[Am/G]g-nition
Dadd9 (n.c.)
and may God's love be with you
(Take off is this chord: (Dadd9)
 
 e|-0-------------------------------------|
 B|-3-------------------------------------|
 G|-2-------------------------------------|
 D|-0-------------------------------------|
 A|-0-------------------------------------|
 E|-2-------------------------------------|

Slide this as far as D bass (thumb) for 2 bars
[C]This is Ground Control to Major T[E]om
You've [E7]really made the gr[F]ade
And the [Fm]papers want to [C]know whose shirts you [F]wear
Now it's [Fm]time to leave the [C]capsule
if you [F]dare
[C]This is Major Tom to Ground [E]Control
I'm [E7]stepping through the [F]door
And I'm [Fm]floating
in a mo[C]st peculiar [F]way
And the [Fm]stars look very [C]different to[F]day
For [Fmaj7]here
Am I [Em]sitting in a tin can
[Fmaj7]Far above the [Em]world
[Bb]Planet Earth is [Am]blue
And there's [G]nothing I can [F]do
[C] [F] [G] [A] [A]  
[C] [F] [G] [A] [A]  
Fmaj7 Em A C D*(see below) E*
Ohhhh.......
(Landing with these chords: (D* & E*)
 
 e|--5---0-------0--0--0--0-----|
 B|--7---0-------0--0--0--1-----|
 G|--7---9-------9--\--2--0-----|
 D|--0---9-------9--\--2--2-----|
 A|--x---7-------7--\--0--3-----|
 E|--x---0-------0--0--0--3-----|

[C]Though I'm past
one hundred thousand [E]miles
I'm [E7]feeling very [F]still
And I t[Fm]hink my spaceship [C]knows which way to [F]go
Tell my [Fm]wife I love her [C]very much
she [F]knows
[G]Ground Control to [E7]Major Tom
Your [Am]circuit's dead,
there's [Am/G]something wrong
Can you [Dadd9]hear me, Major Tom?
Can you [C]hear me, Major Tom?
Can you [G]hear me, Major Tom?
Can you....
For [Fmaj7]here and I'm
Float[Em]ing round my tin can
[Fmaj7]Far above the [Em]moon
[Bb]Planet Earth is [Am]blue
And there's [G]nothing I can [F]do
[C] [F] [G] [A] [A]  
[C] [F] [G] [A] [A]  
[Fmaj7] [Em] [A] [C] [D]  
[C] [F] [G] [A] [A]  
[C]Ohhh[F]h...[G].... [A] [A]
************************************
| / slide up
| \ slide down
| h hammer-on
| p pull-off
| ~ vibrato
| + harmonic
| x Mute note
| b Bend
| pb Pre-bend
| br Bend release
| pbr Pre-bend release
| brb Bend release bend
************************************

Important: The song above is NOT stored on the Chordie server. The original song is hosted at www.guitaretab.com. Chordie works as a search engine and provides on-the-fly formatting. Chordie does not index songs against artists'/composers' will. To remove this song please click here.

Text color:
Chord color:
Chord grids: 
Font size:    
Page size: 

A Am Bb C D Dadd9 E E7 Em F Fm Fmaj7 G
Rate #1 of 20 versions

Jango Player

Login - add to songbook

SHARE PAGE  



You need to log in to post comments