Guitar Tabs, Chords and Lyrics
Major upgrade!! After one year development the new version of Chordie is now online! Please give feedback.


Iâ??m Afraid of Americans   David Bowie

 
 E -------verse riff played thru-out------||
 B ----------cleen guitar or bass---------||
 G ---------------------------------------||
 D -3-1-------------1-------3-1-----------||
 A -----3-3--------3-----------3-3--------||
 E --------2-1-1-1----------------2-1-1---||
 E -----------chorus riff A---------------||
 B --------Distortion/fuzz box------------||
 G ---------------------------------------||
 D -3--3-3---6-------------3--3-3---6-----||
 A -3--3-3---6-------------3--3-3---6-----||
 E -1--1-1---4-------------1--1-1---4-----||
 E -----------chorus riff B---------------||
 B ---------------------------------------||
 G ---------------------------------------||
 D --3P1---3-3----------------------------||
 A -----3--3-3----------------------------||
 E ------1-1-1----------------------------||
 E -----------Bridge----------------------------||
 B ---------------------------------------------||
 G -10-10-10-11-11-11-11-11-11-13-13-13--8--888-||
 D ---------------------------------------------||
 A -8--8--8--9--9--9--9--9--9--11-11-11--6--666-||
 E ---------------------------------------------||


Important: The song above is NOT stored on the Chordie server. The original song is hosted at www.guitaretab.com. Chordie works as a search engine and provides on-the-fly formatting. Chordie does not index songs against artists'/composers' will. To remove this song please click here.

This song is displayed as text-only. Transposing and tuning is only available for chordpro-songs.
Rate #1 of 2 versions

Login - add to songbook

SHARE PAGE  




You need to log in to post comments