Guitar Tabs, Chords and Lyrics
Server problems seems to be fixed. Chordie has been experiencing problems with songs disappearing. These issues now seems to be fixed, but still verifying the fix. If you find anything strange, please email admin@chordie.com.


All Creatures #2  David Crowder Band

All Creatures #2
David Crowder Band
Illuminate. 2003
Standard Tuning
Intro/riff1:
 
 e|------------------------------7-5---------|
 b|---------5h7p5----7/8-10------------------|
 g|--7-7h9--------7--------------------------|
 d|------------------------------------------|
 a|------------------------------------------|
 E|------------------------------------------| 

Or capo 5 and play it like this
 
 e|-----------------------------2-0----------|
 b|---------0h2p0----2/3-5-------------------|
 g|--2-2h4--------2--------------------------|
 d|------------------------------------------|
 a|------------------------------------------|
 E|------------------------------------------| 

For intro play twice while guitar 2 plays D D Bm Bm G G
Verse 1:
[D]All creatures of our God and King Li[Bm]ft up your voice and hear us sing
O[G] Praise Him Al[G]leluia
T[D]hou burning sun with golden beam Tho[Bm]u silver moon with softer gleam
O[G] Praise Him O [G]Praise Him
G Bm A[//] D[////]
Alleluiah Alleluia Alleluia
riff1 x1
verse 2:
T[D]hou rushing wind that art so strong Ye[Bm] clouds that sail in heaven along
[G]O Praise Him A[G]lleluia
T[D]hou rising moon in praise rejoice Ye[Bm] lights of evening find a voice
O [G]Praise Him O[G] Praise Him
G Bm A[//] D[////]
Alleluia Alleluia Alleluia
riff1 x2
verse 3:
L[D]et all things their Creator bless And wor[Bm]ship Him in humbleness
O[G] Praise Him A[G]lleluia
P[D]raise, Praise the Father Praise the Son An[Bm]d Praise the Spirit Three-in-One
O[G] Praise Him O[G] Praise Him
G Bm A[//] D
Alleluia Alleluia Alleluia
D (slowly build for 4 measures)
verse 4:
P[D]raise, Praise the Father Praise the Son An[Bm]d Praise the Spirit Three-in-One
O[G] Praise Him O[G] Praise Him
G Bm A[//] D
Alleluia Alleluia Alleluia
Outro:
[G] [A] [Bm] [A]  
Al[G]leluia Allel[A]uia
Al[Bm]leluia All[A]eluia (x3)
Al[G]leluia

Important: The song above is NOT stored on the Chordie server. The original song is hosted at www.guitaretab.com. Chordie works as a search engine and provides on-the-fly formatting. Chordie does not index songs against artists'/composers' will. To remove this song please click here.

Text color:
Chord color:
Chord grids: 
Font size:    
Page size: 

A Bm D G
Rate #2 of 4 versions

Login - add to songbook

SHARE PAGE  



You need to log in to post comments