Guitar Tabs, Chords and Lyrics
Server problems seems to be fixed. Chordie has been experiencing problems with songs disappearing. These issues now seems to be fixed, but still verifying the fix. If you find anything strange, please email admin@chordie.com.


Tobacco Road  David Lee Roth

 
 -------------------------------------------------------------------------------

TOBACCO ROAD - David Lee Roth
 
 -------------------------------------------------------------------------------

Tabbed by: Tyler J
Email: full_metal_orange AT hotmail DOT com
Tuning: Standard
 
 |----3---| 

Q E E E E E E E H E E E E
 
 E||---------10---------------------------|-------------------------------|
 B||-------------10-----------------------|--12br--------L----------------|
 G||--12b------------12br--L--10------10--|--12b---------L--10------------|
 D||------------------------------12------|---------------------12p--10~--|
 A||--------------------------------------|-------------------------------|
 E||--------------------------------------|-------------------------------|
 |----3---| |----3---| |----3---| |----3---| 

S S S S S S S S S S S S E E Q
 
 -------------------------------------------------------------------|
 -------------------------------------------------------------------|
 --------------------------------------------------------x--5--5----|
 --10h-(12)-10h-(12)-10h-(12)-10h-(12)-10h-(12)-10h-(12)-x--5--5----|
 --------------------------------------------------------------5----|
 --------------------------------------------------------------3----|
 |--3--| |--3--| |--3--| |--3--| 

Q E E E E E E Q Q E E E E E E Q
 
 -------------------------------|-------------------------------|
 -------------------------------|-------------------------------|
 --7S----x--x--x--x--x--x--5----|--7S----x--x--x--x--x--x--5----|
 --7S----x--x--x--x--x--x--5----|--7S----x--x--x--x--x--x--5----|
 --5S----x--x--x--x--x--x--3----|--5S----x--x--x--x--x--x--3----|
 --5S----x-----5--------3--3----|--5S----x-----5--------3--3----|
 |--3--| |--3--| |--3--| 

Q E E E E E E Q Q S S S E E E Q
 
 -------------------------------|------------------------------------|
 -------------------------------|-------10-13-10---------------------|
 --7S----x--x--x--x--x--x--5----|--7-------------12--10--(10)S--5----|
 --7S----x--x--x--x--x--x--5----|--7----------------------------5----|
 --5S----x--x--x--x--x--x--3----|--5----------------------------3----|
 --5S----x-----5--------3--3----|------------------------------------|
 |--3--| |--3--| |--3--| |--3--| 

Q E E E E E E Q Q E E E E E E Q
 
 -------------------------------|-------------------------------|
 -------------------------------|-------------------------------|
 --7S----x--x--x--x--x--x--5----|--7S----x--x--x--x--x--x--5----|
 --7S----x--x--x--x--x--x--5----|--7S----x--x--x--x--x--x--5----|
 --5S----x--x--x--x--x--x--3----|--5S----x--x--x--x--x--x--3----|
 --5S----x-----5--------3--3----|--5S----x-----5--------3--3----|
 |--3--| |--3--| |--3--| |--3--| 

Q E E E E E E Q Q E E E E E E Q
 
 -------------------------------|----------------------------------|
 -------------------------------|----------------------------------|
 --7S----x--x--x--x--x--x--5----|--7S----x--x--x--x--x--x--5b----|
 --7S----x--x--x--x--x--x--5----|--7S----x--x--x--x--x--x----------|
 --5S----x--x--x--x--x--x--3----|--5S----x--x--x--x--x--x----------|
 --5S----x-----5--------3--3----|--5S----x-----5--------6----------|
 |--3--| |--3--| |--3--| 

Q E E E E E E Q Q E E E E E Q
 
 ------------------------------|----------------------------|
 ------------------------------|----------------------------|
 --L----x--x--x--x--x--x--5----|--7S----x-----5--5--5--5----|
 -------x--x--x--x--x--x--5----|--7S----x-----5--5--5--5----|
 -------x--x--x--x--x--x--3----|--5S----x-----3--3--3--3----|
 -------x-----5--------3--3----|--5S----x--4-----------3----|

Q H Q H W H E E Q
 
 ----------------------|-----------|-------------------|----------------------|
 ----------------------|-----------|-------------------|----------------------|
 --7S------------------|-----------|-------------------|--------------x--5----|
 --7S------------------|-----------|-------------------|--------------x--5----|
 --5S------------------|-----------|-------------------|--------------x--3----|
 --5S------------------|-----------|-------------------|-----------------3----|
 |--3--| |--3--| 

Q E E E E E E Q E E E E E E Q
 
 -------------------------------|-------------------------------|
 -------------------------------|-------------------------------|
 --7S----x--x--x--x--x--x--5----|--7S--(5)--5S--7--7S--10--5----|
 --7S----x--x--x--x--x--x--5----|--7-----------------------5----|
 --5S----x--x--x--x--x--x--3----|--5S--(3)--3S--5--5S---8--3----|
 --5S----x-----5--------3--3----|--5-----------------------3----|
 |--3--| |--3--| 

Q E E E E E E E E E E Q E E Q
 
 ----------------------------------|---------------------------------|
 ----------------------------------|---------------------------------|
 --7S----x--x--x--x--x--x--5S--17--|--17--17--14-------L--10--10S----|
 --7S----x--x--x--x--x--x----------|--------------------------10S----|
 --5S----x--x--x--x--x--x--3S--15--|--15--15--12pbr----L---8---8S----|
 --5S----x-----5--------3----------|---------------------------------|
 |--3--| |--3--| 

Q E E E E E E E E Q Q E E Q
 
 ---------------------------------|--------------------------|
 ---------------------------------|-------8b----L--L-------|
 --7S----x--x--x--x--x--x---------|---------------------5----|
 --7S----x--x--x--x--x--x--5S--7--|--7------------------5----|
 --5S----x--x--x--x--x--x---------|--7------------------3----|
 --5S----x-----5--------3--3S--5--|--5------------------3----|

\6/
 
 |--3--| |--3--| 

E E E E E E H H W
 
 ------------------------------|-----------|-------------------|
 ------------------------------|-----------|-------------------|
 --7--6--5--3--2--0---L--------|--L--------|-------------------|
 --7--6--5--3--2--0---L--------|--L--------|-------------------|
 --5---------------------------|-----------|-------------------|
 --5---------------------------|-----------|-------------------|
 |--3--| |---3---| |---3---| 

Q E E E E E E E E E
 
 ----------------------------------------|
 ----------------------------------------|
 -------9--9--9--10--10--10--11--11--11--|
 ----------------------------------------|
 -------7--7--7---8---8---8---9---9---9--|
 ----------------------------------------|
 |---3---| |---3---| |---3---| |---3---| 

[E] [E] [E] [E] [E] [E] [E] [E] [E] [E] [E] [E]  
 
 --10--10------10--10------10--10------10--10------|
 --10--10------10--10------10--10------10--10------|
 --12--12--12--12--12--12--12--12--12--12--12--12--|
 --12--12--12--12--12--12--12--12--12--12--12--12--|
 --------------------------------------------------|
 --------------------------------------------------|
 |---3---| |---3---| |---3---| |---3---| 

[E] [E] [E] [E] [E] [E] [E] [E] [E] [E] [E] [E]  
 
 --10--10------10--10------10--10------10--10------|
 --10--10------10--10------10--10------10--10------|
 --12--12--12--12--12--12--12--12--12--12--12--12--|
 --12--12--12--12--12--12--12--12--12--12--12--12--|
 --------------------------------------------------|
 --------------------------------------------------|
 |---3---| |---3---| |---3---| 

E E E E E E E E E E. S
 
 --10--10--10--10--10--10--10--10--10--10S---x-|
 --10--10--10--10--10--10--10--10--10--10S---x-|
 --12--12--12--12--12--12--12--12--12--12S---x-|
 --12--12--12--12--12--12--12--12--12--12S---x-|
 ----------------------------------------------|
 ----------------------------------------------|
 |----3---| |---3---| |----3---| |---3---| 

[E] [E] [E] [E] [E] [E] [E] [E] [E] [E] [E] [E]  
 
 ----------------------------------------------------|
 --14S--15--15--15--15--15--14S--15--15--15--15--15--|
 --13S--14--14--14--14--14--13S--14--14--14--14--14--|
 --11S--12--12--12--12--12--11S--12--12--12--12--12--|
 ----------------------------------------------------|
 ----------------------------------------------------|
 |----3---| |---3---| |----3---| |---3---| 

[E] [E] [E] [E] [E] [E] [E] [E] [E] [E] [E] [E]  
 
 ----------------------------------------------------|
 --14S--15--15--15--15--15--14S--15--15--15--15--15--|
 --13S--14--14--14--14--14--13S--14--14--14--14--14--|
 --11S--12--12--12--12--12--11S--12--12--12--12--12--|
 ----------------------------------------------------|
 ----------------------------------------------------|
 |----3---| |---3---| |---3---| |---3---| 

[E] [E] [E] [E] [E] [E] [E] [E] [E] [E] [E] [E]  
 
 ---------------------------------------------------|
 --14S--15--15--15--15--15--15--15--15------15------|
 --13S--14--14--14--14--14--14--14--14--14------12--|
 --11S--12--12--12--12--12--12--12--12----------12--|
 ---------------------------------------------------|
 ---------------------------------------------------|
 |---3---| |---3---| |---3---| |---3---| 

[E] [E] [E] [E] [E] [E] [E] [E] [E] [E] [E] [E]  
 
 --------------------------------------------------|
 --12--12--12--13--13--13--12--12--12--13--13--13--|
 --12--12--12--14--14--14--12--12--12--14--14--14--|
 --12--12--12--12--12--12--12--12--12--12--12--12--|
 --------------------------------------------------|
 --------------------------------------------------|
 |---3---| |---3---| |---3---| |---3---| 

E E E E E E E E E E E E Q E E H
 
 --------------------------------------------------|-------------------------|
 --12--12--12--13--13--13--12--12--12--13--13--13--|-------------------------|
 --12--12--12--14--14--14--12--12--12--14--14--14--|--12S~----0--------------|
 --12--12--12--12--12--12--12--12--12--12--12--12--|-------------------------|
 --------------------------------------------------|-------------------------|
 --------------------------------------------------|-------------------------|
 |----3---| 

Q E E E E E E E H E E E E
 
 ---------10---------------------------|-------------------------------|
 -------------10-----------------------|--12br--------L----------------|
 --12b------------12br--L--10------10--|--12b---------L--10------------|
 ------------------------------12------|---------------------12p--10~--|
 --------------------------------------|-------------------------------|
 --------------------------------------|-------------------------------|

\1/
 
 |--3--| |--3--| 

Q Q Q Q Q E E E E E E Q
 
 ------------------------|-------------------------------|
 ------------------------|-------------------------------|
 -------------------5----|--7S----x--x--x--x--x--x--5----|
 --0----(0)---------5----|--7S----x--x--x--x--x--x--5----|
 -------------------3----|--5S----x--x--x--x--x--x--3----|
 -------------------3----|--5S----x-----5--------3--3----|
 |--3--| |--3--| |---3--| |--3--| |---3--| 

Q E E E E E E Q E E E E E E E E E Q
 
 -------------------------------|--------------------------------------|
 -------------------------------|--------------------------------------|
 --7S----x--x--x--x--x--x--5----|------------5-------------------------|
 --7S----x--x--x--x--x--x--5----|--7--6h--7-----7--6--5S--3------------|
 --5S----x--x--x--x--x--x--3----|----------------------------5--3----|
 --5S----x-----5--------3--3----|--------------------------------------|
 |--3--| |--3--| 

Q E E Q Q Q E E E E E E Q
 
 ------------------------------|-------------------------------|
 ------------------------------|-------------------------------|
 -------------------------5----|--7S----x--x--x--x--x--x--5----|
 -------------------------5----|--7S----x--x--x--x--x--x--5----|
 --5----(5)S--x---------3----|--5S----x--x--x--x--x--x--3----|
 ------------------13S----3----|--5S----x-----5--------3--3----|

W W H
 
 ----------------------|----------------------|------------|
 ----------------------|----------------------|------------|
 ----------------------|----------------------|------------|
 --7S----------------|--(3)S----------------|--0~--------|
 ----------------------|----------------------|------------|
 ----------------------|----------------------|------------|
 |--3--| |---3---| |---3---| 

Q E E E E E E E E E
 
 ----------------------------------------|
 ----------------------------------------|
 -------9--9--9--10--10--10--11--11--11--|
 ----------------------------------------|
 -------7--7--7---8---8---8---9---9---9--|
 ----------------------------------------|
 |---3---| |---3---| |---3---| |---3---| 

[E] [E] [E] [E] [E] [E] [E] [E] [E] [E] [E] [E]  
 
 --10--10------10--10------10--10------10--10------|
 --10--10------10--10------10--10------10--10------|
 --12--12--12--12--12--12--12--12--12--12--12--12--|
 --12--12--12--12--12--12--12--12--12--12--12--12--|
 --------------------------------------------------|
 --------------------------------------------------|
 |---3---| |---3---| |---3---| |---3---| 

[E] [E] [E] [E] [E] [E] [E] [E] [E] [E] [E] [E]  
 
 --10--10------10--10------10--10------10--10------|
 --10--10------10--10------10--10------10--10------|
 --12--12--12--12--12--12--12--12--12--12--12--12--|
 --12--12--12--12--12--12--12--12--12--12--12--12--|
 --------------------------------------------------|
 --------------------------------------------------|
 |---3---| |---3---| |---3---| |----3---| 

[E] [E] [E] [E] [E] [E] [E] [E] [E] [E] [E] [E]  
 
 --10--10--10--10--10--10--10--10--10--10S--10------|
 --10--10--10--10--10--10--10--10--10--10S--10------|
 --12--12--12--12--12--12--12--12--12--12S--12--11--|
 --12--12--12--12--12--12--12--12--12--12S--12------|
 ---------------------------------------------------|
 ---------------------------------------------------|
 |---3---| |---3---| |----3---| |---3---| 

[E] [E] [E] [E] [E] [E] [E] [E] [E] [E] [E] [E]  
 
 --------------------------------1-------10--10------|
 --13--13--13--13--13--13--10---10--10---10--10--13--|
 --14--14--14--14--14--14--12b------12b--------------|
 ----------------------------------------------------|
 ----------------------------------------------------|
 ----------------------------------------------------|
 |----3---| |----3---| |----3---| |-3-| 

E E E E E E E E E E Q
 
 -------10------10-------10-------10-----------------|
 --13b------10------13b---------------13b-----13b----|
 ----------------------------12b---------------------|
 ----------------------------------------------------|
 ----------------------------------------------------|
 ----------------------------------------------------|

\1/
 
 |---3---| |---3---| |---3--| 

Q H Q Q E E E E E E Q E
 
 ------------------------------|--19br----17-----------------------------------|
 --13-----(13)~--------(13)----|--------------18--17br--L----------------------|
 --12b----(12)~--------(12)----|---------------------------19--17--16~----14S--|
 ------------------------------|-----------------------------------------------|
 ------------------------------|-----------------------------------------------|
 ------------------------------|-----------------------------------------------|
 |---3---| |---3--| |--3--| |--3--| 

E E E E E E E E E Q E Q E E H
 
 -------------------------------------------|----------------------------|
 -------------------------------------------|----------------------------|
 --10--9br--L--7----------------------------|--12~----(12)S--0-----------|
 -----------------10--9~--L--7--------------|----------------------------|
 -------------------------------8--7~----5--|----------------------------|
 -------------------------------------------|----------------------------|
 |----3---| 

Q E E E E E E E H E E E E
 
 ---------10---------------------------|-------------------------------|
 -------------10-----------------------|--12br--------L----------------|
 --12b------------12br--L--10------10--|--12b---------L--10------------|
 ------------------------------12------|---------------------12p--10~--|
 --------------------------------------|-------------------------------|
 --------------------------------------|-------------------------------|
 |------3------| |---3--| 

Q Q Q Q E E E H. E E
 
 -----------------------------------------|------------------------------|
 --15b----15b----15b----15br----L--L--13--|--(13)~------------15b--15br--|
 -----------------------------------------|------------------------------|
 -----------------------------------------|------------------------------|
 -----------------------------------------|------------------------------|
 -----------------------------------------|------------------------------|
 |---3--| |---3--| |-----3----| |--3--| 

Q E E E Q E E E E E E E S S S S E Q E
 
 -------------------------15b--|--L--L--13--15S--8----------------------------|
 --L----L--L--13--L----L-------|--------------------10S-8br-L-L-6~------------|
 ------------------------------|----------------------------------------------|
 ------------------------------|----------------------------------------------|
 ------------------------------|------------------------------------20S----3--|
 ------------------------------|----------------------------------------------|

S S S S S S S S S S S S S S E
 
 ------------------------------------------------------|
 ------------------------------------------------------|
 --10p-9h-10p-9p-4h-5p-4h-5-10p-9h-10p-9h-14h-15p-14h--|
 ------------------------------------------------------|
 ------------------------------------------------------|
 ------------------------------------------------------|

|--3-|
S S S S S S S S T T S S S S S E S
 
 --------------------------------------------------------------|
 --------------------------------------------------------------|
 --9h-10p-9h-10p-5p-4h-5p-4h-10p-9h-10p-9h-10h-15p-14h-15p--10-|
 --------------------------------------------------------------|
 --------------------------------------------------------------|
 --------------------------------------------------------------|

\1/ \1/ \1/ \1/ \1/ \1/
Q Q Q Q Q Q H H H
 
 --------------------------|------------------------|--17----------(17)~--------|
 --------------------------|------------------------|--20br--------(20)~--------|
 --10----12----15----12----|--14----10----3~--------|---------------------------|
 --------------------------|------------------------|---------------------------|
 --------------------------|------------------------|---------------------------|
 --------------------------|------------------------|---------------------------|

H Q Q Q Q H H. E E
 
 --17~---------17----17~-----|--L----17----17---------|--17------------13S--20--|
 --20b~--------20----20b~----|--L----20----20b--------|--20---------------------|
 ----------------------------|------------------------|-------------------------|
 ----------------------------|------------------------|-------------------------|
 ----------------------------|------------------------|-------------------------|
 ----------------------------|------------------------|-------------------------|
 |--3--| |--6--| |--6--| |-----5-----| |-----5-----| 

S S S S S S S S S S S S S S S S S S S S S
 
 --19-17----------------------------------------------------------|
 --------20-19-17-19-20-19-17-19-17----17-19-17-------------------|
 -----------------------------------19----------19-17-16----16-17-|
 --------------------------------------------------------19-------|
 -----------------------------------------------------------------|
 -----------------------------------------------------------------|
 |--6--| |--6--| |--| |--6--| 

S S S S S S S E S S S Q Q
 
 ------------------------------------------------|
 -------------------------------------------x----|
 --16---------------------------------------x----|
 -----19-17-15-14-17-15-14--15-14-15--------x----|
 ------------------------------------15~---------|
 ------------------------------------------------|
 |------3------| |-----3-----| 

Q Q Q Q Q Q W
 
 -----------------------------------14----|--20b----------------|
 -----------------------------15----------|---------------------|
 --------------7----14----------------|---------------------|
 -------7-------------------------------|---------------------|
 --5--------------------------------------|---------------------|
 -----------------------------------------|---------------------|

W
 
 |----3---| |----3---| 

Q E E E Q Q Q E E E Q Q
 
 -------------------------------|-------------------------------|
 -------------------------------|-------------------------------|
 --7----7S--10--19S--17----5----|--7----7S--10--19S--17----5----|
 --7----7S--10--19S--17---------|--7----7S--10--19S--17----5----|
 --5----------------------------|--5-----------------------3----|
 --5----------------------------|--5-----------------------3----|
 |----3---| |----3---| 

Q E E E Q Q Q E E E E E Q
 
 -------------------------------|----------------------------------|
 -------------------------------|----------------------------------|
 --7----7S--10--19S--17----5----|--7----7S--10--19S--17--10--10----|
 --7----7S--10--19S--17----5----|--7----7S--10--19S--17--10--10----|
 --5-----------------------3----|--5----------------------8---8----|
 --5-----------------------3----|--5-------------------------------|
 |----3---| |----3---| 

Q E E E Q Q Q E E E Q Q
 
 -------------------------------|-------------------------------|
 -------------------------------|-------------------------------|
 --7----7S--10--19S--17----5----|--7----7S--10--19S--17----5----|
 --7----7S--10--19S--17----5----|--7----7S--10--19S--17----5----|
 --5-----------------------3----|--5-----------------------3----|
 --5-----------------------3----|--5-----------------------3----|

\4/
[B] [B]  
 
 ---------------------|-----------||
 ---------------------|-----------||
 --7S--------0--------|-----------||
 --7S--------0--------|-----------||
 --5S--------0--------|-----------||
 --5S--------0--------|-----------||

Duration Legend
 
 ---------------

W - whole
H - half
Q - quarter
E - 8th
S - 16th
T - 32nd
X - 64th
. - note dotted
|-n-| - n-tuplets
Tablature Legend
 
 ----------------

L - tied note
x - dead note
g - grace note
(n) - ghost note
> - accentuded note
NH - natural harmonic
AH - artificial harmonic
TH - tapped harmonic
SH - semi harmonic
PH - pitch harmonic
h - hammer on
p - pull off
b - bend
br - bendRelease
pb - preBend
pbr - preBendRelease
brb - bendReleaseBend
\n/ - tremolo bar dip
\n - tremolo bar dive
-/n - tremolo bar Release up
/n\ - tremolo bar inverted dip
/n - tremolo bar return
-\n - tremolo bar Release down
S - shift slide
s - legato slide
/ - slide into from below or out of upwards
\ - slide into from above or out of downwards
~ - vibrato
W - wide vibrato
tr - trill
TP - tremolo picking
T - tapping
S - slap
P - pop
< - fade in
^ - brush up
v - brush down

Important: The song above is NOT stored on the Chordie server. The original song is hosted at www.guitaretab.com. Chordie works as a search engine and provides on-the-fly formatting. Chordie does not index songs against artists'/composers' will. To remove this song please click here.

Text color:
Chord color:
Chord grids: 
Font size:    
Page size: 

B E
Rate #1 of 3 versions

Jango Player

Login - add to songbook

SHARE PAGE  



You need to log in to post comments