Guitar Tabs, Chords and Lyrics
Server problems seems to be fixed. Chordie has been experiencing problems with songs disappearing. These issues now seems to be fixed, but still verifying the fix. If you find anything strange, please email admin@chordie.com.


Ladies' Nite in Buffalo?  David Lee Roth

Author/Artist: David Lee Roth
Title: Ladies Nite in Buffalo
Album: Eat em and smile
Transcribed by: Geoff Lea
Email: Geosouthuk@aol.com
One of Vai's finest moments, I do prefer him in a band context. This solo is chock full of great licks and ideas.
The major 7 rapid fire arpeggios are very reminiscent of Gary Moore (end of the world, murder in the skies).
Chordally, nice voicings and lovely use of octaves. This is how i like my Vai. Any Comments questions etc feel free to email me .
Riff 1(verse)
 
 -5--------------------------------8-8-8-8-------------------------------------
 -6----------6---------------6-------------------------------------------------
 -5----------5---------------5-----5-5-5-5-------------------------------------
 ------------------------------------------------------------------------------
 -5--------------5-3-----------------------------------------------------------
 --------5-----------5-3---5---------------------------------------------------

[Dmin7]  
Riff2 (prechorus)
 
 -6-----------3--------------3--------6-----3--------5-------------------------
 -8-----------4--------------3--------8-----4--------5h-6----------------------
 -7-----------3------------5----------7-----3--------5h-6----------------------
 -8-----------5----------5------------8-----5--------5-------------------------
 -6-----------3-----------------------6-----3----------------------------------
 ----------------------5-----------------------------5-------------------------

[Emaj7] [Cmin7] [A] [min11] [Emaj7] [A7#5] 
Chorus
 
 -13-/-15-15-------8/-10-10----------------------------------------------------
 --------------------------------6/-8-8----------------------------------------
 -10-/-12-12-------5/-7--7-------5/-7-7---5-7-5--------------------------------
 -----------------------------------------5-7-5--------------------------------
 ------------------------------------------------------------------------------
 ------------------------------------------------------------------------------

Bridge (pre-solo)
 
 ------------------------------------------------------------------------------
 ------------------------------------------------------------------------------
 ------------------------------------------------------------------------------
 ------------------------------------------------------------------------------
 -5-------5------------5--------------5----------------------------------------
 ---1-3-1--------------------0-1-0---------------------------------------------

Solo
 
 --20b22---13-10----10---------------------------------------------------------
 ----------------13----13b15---13b15--13-10--------20--17-18-------10-8-7------
 -------------------------------------------------------------------------10---
 ------------------------------------------------------------------------------
 ------------------------------------------------------------------------------
 ------------------------------------------------------------------------------
 ---------------------20\-15-----15\12-----12\8-----8\5--8-7-5-----------------
 -------------------x----------x---------x--------x------------8-7-5-----------
 -9-7-------------x----------x---------x--------x--------------------7-5-4-----
 -----10-9-7---------------------------------------------------------------7---
 ------------10----------------------------------------------------------------
 ------------------------------------------------------------------------------
 ----------------------------------8-----10------12----|-----------12-15-12--|-
 ----------------------------8--------8------10-----10-|--13-12-13-----------|-
 ------------------------5------7----------------------|-.------------------.|-
 -5-3-----------3----7---------------------------------|---------------------|-
 -----7-5-3--------------------------------------------|-.------------------.|-
 ------------------------------------------------------|---------------------|-

repeat x4
 
 -|----------17-20-17-|---17-20-17----17---------------------------------------
 -|-18-17-18----------|------------20----20-18---12-13-12----12----------------
 -|-------------------|-----------------------------------14----14-12--9-10-9--
 -|-------------------|--------------------------------------------------------
 -|-------------------|--------------------------------------------------------
 -|-------------------|--------------------------------------------------------

repeat x4
 
 ---------------------------------------------------17-20b22-b22-b-22-b22-20---
 -------------------------------------------13--18-----------------------------
 ----9-----------------------------------14------------------------------------
 -12---12-10-9-10-9----------------12-14---------------------------------------
 -------------------12-----12---15---------------------------------------------
 ------------------------------------------------------------------------------
 trem pick-------------
 -17-22b24-27------------------------------------------------------------------
 --------------------------------8-----------------8--------11-8-8--8-10-11-8--
 -----------------------------------5-5----5-7-8-5---7vvvvv--------------------
 ------------------------------------------------------------------------------
 ------------------------------------------------------------------------------
 ------------------------------------------------------------------------------

*fret on pickup
 
 ------------------------------------------------------------------------------
 -13----17b19------------------------------------------------------------------
 ------------------------------------------------------------------------------
 ------------------------------------------------------------------------------
 ------------------------------------------------------------------------------
 ------------------------------------------------------------------------------

_________________________________________________________________________________________

Important: The song above is NOT stored on the Chordie server. The original song is hosted at www.guitaretab.com. Chordie works as a search engine and provides on-the-fly formatting. Chordie does not index songs against artists'/composers' will. To remove this song please click here.

Text color:
Chord color:
Chord grids: 
Font size:    
Page size: 

A A7#5 Cmin7 Dmin7 Emaj7
Rate #1 of 2 versions

Login - add to songbook

SHARE PAGE  




You need to log in to post comments