Guitar Tabs, Chords and Lyrics
Server problems seems to be fixed. Chordie has been experiencing problems with songs disappearing. These issues now seems to be fixed, but still verifying the fix. If you find anything strange, please email admin@chordie.com.


Goin' Crazy!  David Lee Roth

 
 -------------------------------------------------------------------------------

GOIN' CRAZY - David Lee Roth
 
 -------------------------------------------------------------------------------

Tabbed by: Tyler J
Email: full_metal_orange AT hotmail DOT com
Tuning: Standard
[E] [E] [E] [E] [E] [E] [E] [E] [E] [E] [E] [E] [E] [E] [E] [E]  
 
 E||------------------5--------|---------------------------|
 B||-----8S--7--5-----5--------|---------------------------|
 G||-----7---------------7--5--|---------------------------|
 D||---------------7-----7--5--|-----7S--5-----4-----5-----|
 A||---------------------------|-----7S--5--5--L--5-----3--|
 E||---------------------------|---------------------------|

[E] [E] [E] [E] [E] [E] [E] [E] [E] [E] [E] [E] [E] [E] [E] [E]  
 
 ------------------5--------|---------------------------|
 -----8S--7--5-----5--------|---------------------------|
 -----7---------------7--5--|---------------------------|
 ---------------7-----7--5--|--7S--5--4-----4-----5-----|
 ---------------------------|--7S--5-----5--L--5-----3--|
 ---------------------------|---------------------------|

[E] [E] [E] [E] [E] [E] [E] [E] [E] [E] [E] [E] [E] [E] [E] [E]  
 
 ------------------5--------|---------------------------|
 -----8S--7--5-----5--------|---------------------------|
 -----7---------------7--5--|---------------------------|
 ---------------7-----7--5--|-----7S--5-----4-----5-----|
 ---------------------------|-----7S--5--5-----5-----3--|
 ---------------------------|---------------------------|

[E] [E] [E] [E] [E] [E] [E] [E] [E] [E] [E] [E] [E] [E] [E] [E]  
 
 ------------------5--------|---------------------------|
 -----8S--7--5-----5--------|---------------------------|
 -----7---------------7--5--|---------------------------|
 ---------------7-----7--5--|--7S--5--4-----4-----5--7--|
 ---------------------------|--7S--5-----5-----3--3--5--|
 ---------------------------|---------------------------|

E S. T S. T S. T S. T S. T S. T S. T
 
 ----------------------------------------|
 ----------------------------------------|
 -----7----7----7----7----7----7----7----|
 -----7----7----7----7----7----7----7----|
 -----5----5----5----5----5----5----5----|
 ----------------------------------------|

S. T S. T S. T S. T S. T S. T S. T S. T
 
 ------------------------------------------|
 ------------------------------------------|
 --5----5----5----5----5----5----9----9----|
 --7----7----7----7----7----7----7----7----|
 --5----5----5----5----5----5----5----5----|
 ------------------------------------------|

E S. T S. T S. T S. T S. T S. T S. T
 
 ----------------------------------------|
 ----------------------------------------|
 -----7----7----7----7----7----7----7----|
 -----7----7----7----7----7----7----7----|
 -----5----5----5----5----5----5----5----|
 ----------------------------------------|

S. T S. T S. T S. T S. T S. T S. T S. T
 
 ------------------------------------------|
 ------------------------------------------|
 --5----5----5----5----5---------2----2----|
 --7----7----7----7----7---------5----5----|
 --5----5----5----5----5----5----5----5----|
 ------------------------------------------|

E S. T S. T S. T S. T S. T S. T S. T
 
 ----------------------------------------|
 ----------------------------------------|
 -----7----7----7----7----7----7----7----|
 -----7----7----7----7----7----7----7----|
 -----5----5----5----5----5----5----5----|
 ----------------------------------------|

S. T S. T S. T S. T S. T S. T S. T S. T
 
 ------------------------------------------|
 ------------------------------------------|
 --5----5----5----5----5----5----9----9----|
 --7----7----7----7----7----7----7----7----|
 --5----5----5----5----5----5----5----5----|
 ------------------------------------------|

E S. T S. T S. T S. T S. T S. T S. T
 
 ----------------------------------------|
 ----------------------------------------|
 -----7----7----7----7----7----7----7----|
 -----7----7----7----7----7----7----7----|
 -----5----5----5----5----5----5----5----|
 ----------------------------------------|

S. T S. T S. T S. T S. T S. T S. T S. T
 
 ------------------------------------------|
 ------------------------------------------|
 --5----5----5----5----5---------2----2----|
 --7----7----7----7----7---------5----5----|
 --5----5----5----5----5----5----5----5----|
 ------------------------------------------|

E S. T S. T S. T S. T S. T S. T S. T
 
 ----------------------------------------|
 ----------------------------------------|
 -----7----7----7----7----7----7----7----|
 -----7----7----7----7----7----7----7----|
 -----5----5----5----5----5----5----5----|
 ----------------------------------------|

S. T S. T S. T S. T S. T S. T S. T S. T
 
 ------------------------------------------|
 ------------------------------------------|
 --5----5----5----5----5----5----9----9----|
 --7----7----7----7----7----7----7----7----|
 --5----5----5----5----5----5----5----5----|
 ------------------------------------------|

E S. T S. T S. T S. T S. T S. T S. T
 
 ----------------------------------------|
 ----------------------------------------|
 -----7----7----7----7----7----7----7----|
 -----7----7----7----7----7----7----7----|
 -----5----5----5----5----5----5----5----|
 ----------------------------------------|

S. T S. T S. T S. T S. T S. T S. T S. T E E E E E E E E
 
 ------------------------------------------|-------------------7--------|
 ------------------------------------------|-----10S--9--7-----7--------|
 --5----5----5----5----5---------2----2----|------9---------------9--7--|
 --7----7----7----7----7---------5----5----|----------------9-----9--7--|
 --5----5----5----5----5----5----5----5----|----------------------------|
 ------------------------------------------|----------------------------|

[E] [E] [E] [E] [E] [E] [E] [E] [E] [E] [E] [E] [E] [E] [E] [E]  
 
 ---------------------------|-------------------7--------|
 ---------------------------|-----10S--9--7-----7--------|
 ---------------------------|------9---------------9--7--|
 -----9S--7-----6-----7-----|----------------9-----9--7--|
 -----9S--7--7-----7-----5--|----------------------------|
 ---------------------------|----------------------------|

E E E E E E E E E Q E E E E E
 
 ---------------------------|---------------------12----------|
 ---------------------------|-----14br----12------12----------|
 ---------------------------|-----14br----------------14--12--|
 --9S--7--6-----7-----7-----|-----------------14------14--12--|
 --9S--7-----7-----7-----0--|---------------------------------|
 ---------------------------|---------------------------------|

[E] [E] [E] [E] [E] [E] [E] [E] [E] [E] [E] [E] [E] [E] [E] [E]  
 
 ---------------------------------|-------------------7--------|
 ---------------------------------|-----10S--9--7-----7--------|
 ---------------------------------|------9---------------9--7--|
 -----14S--12------11------12-----|----------------9-----9--7--|
 -----14S--12--12------12---------|----------------------------|
 ------------------------------7--|----------------------------|

E E E E E E E E Q H Q W
 
 ---------------------------|---------------------|-------------------|
 ---------------------------|---------------------|-------------------|
 ---------------------------|---------------------|-------------------|
 --9S--7--6-----7-----7--0--|--L------------------|-------------------|
 --9S--7-----7-----5--------|---------------------|-------------------|
 ---------------------------|---------------------|-------------------|
 -------------------|-------------------|-------------------|-------------------|
 -------------------|-------------------|-------------------|-------------------|
 -------------------|-------------------|-------------------|-------------------|
 -------------------|-------------------|-------------------|-------------------|
 -------------------|-------------------|-------------------|-------------------|
 -------------------|-------------------|-------------------|-------------------|

[E] [E] [E] [E] [E] [E] [E] [E] [E] [E] [E] [E] [E] [E] [E] [E]  
 
 --------------------------|--------------------------|
 -----7--7-----7--------5--|--------5-----3-----5--7--|
 -----7--7-----7--------5--|--L-----5-----4-----5--7--|
 --0-----0--0-----0--0-----|-----0-----0-----0--------|
 --------------------------|--------------------------|
 --------------------------|--------------------------|

E S. T S. T S. T S. T S. T S. T S. T
 
 ----------------------------------------|
 ----------------------------------------|
 -----7----7----7----7----7----7----7----|
 -----7----7----7----7----7----7----7----|
 -----5----5----5----5----5----5----5----|
 ----------------------------------------|

S. T S. T S. T S. T S. T S. T S. T S. T
 
 ------------------------------------------|
 ------------------------------------------|
 --5----5----5----5----5----5----9----9----|
 --7----7----7----7----7----7----7----7----|
 --5----5----5----5----5----5----5----5----|
 ------------------------------------------|

E S. T S. T S. T S. T S. T S. T S. T
 
 ----------------------------------------|
 ----------------------------------------|
 -----7----7----7----7----7----7----7----|
 -----7----7----7----7----7----7----7----|
 -----5----5----5----5----5----5----5----|
 ----------------------------------------|

S. T S. T S. T S. T S. T S. T S. T S. T
 
 ------------------------------------------|
 ------------------------------------------|
 --5----5----5----5----5---------2----2----|
 --7----7----7----7----7---------5----5----|
 --5----5----5----5----5----5----5----5----|
 ------------------------------------------|

E S. T S. T S. T S. T S. T S. T S. T
 
 ----------------------------------------|
 ----------------------------------------|
 -----7----7----7----7----7----7----7----|
 -----7----7----7----7----7----7----7----|
 -----5----5----5----5----5----5----5----|
 ----------------------------------------|

S. T S. T S. T S. T S. T S. T S. T S. T
 
 ------------------------------------------|
 ------------------------------------------|
 --5----5----5----5----5----5----9----9----|
 --7----7----7----7----7----7----7----7----|
 --5----5----5----5----5----5----5----5----|
 ------------------------------------------|

E S. T S. T S. T S. T S. T S. T S. T
 
 ----------------------------------------|
 ----------------------------------------|
 -----7----7----7----7----7----7----7----|
 -----7----7----7----7----7----7----7----|
 -----5----5----5----5----5----5----5----|
 ----------------------------------------|

S. T S. T S. T S. T S. T S. T S. T S. T E E E E E E E E
 
 ------------------------------------------|-------------------7--------|
 ------------------------------------------|-----10S--9--7-----7--------|
 --5----5----5----5----5---------2----2----|------9---------------9--7--|
 --7----7----7----7----7---------5----5----|----------------9-----9--7--|
 --5----5----5----5----5----5----5----5----|----------------------------|
 ------------------------------------------|----------------------------|

[E] [E] [E] [E] [E] [E] [E] [E] [E] [E] [E] [E] [E] [E] [E] [E]  
 
 ---------------------------|-------------------7--------|
 ---------------------------|-----10S--9--7-----7--------|
 ---------------------------|------9---------------9--7--|
 -----9S--7-----6-----7-----|----------------9-----9--7--|
 -----9S--7--7-----7-----5--|----------------------------|
 ---------------------------|----------------------------|

E E E E E E E E E Q E E E E E
 
 ---------------------------|---------------------12----------|
 ---------------------------|-----14br----12------12----------|
 ---------------------------|-----14br----------------14--12--|
 --9S--7--6-----7-----7-----|-----------------14------14--12--|
 --9S--7-----7-----7-----0--|---------------------------------|
 ---------------------------|---------------------------------|

[E] [E] [E] [E] [E] [E] [E] [E] [E] [E] [E] [E] [E] [E] [E] [E]  
 
 ---------------------------------|-------------------7--------|
 ---------------------------------|-----10S--9--7-----7--------|
 ---------------------------------|------9---------------9--7--|
 -----14S--12------11------12-----|----------------9-----9--7--|
 -----14S--12--12------12---------|----------------------------|
 ------------------------------7--|----------------------------|

E E E E E E E E Q H Q W
 
 ---------------------------|---------------------|-------------------|
 ---------------------------|---------------------|-------------------|
 ---------------------------|---------------------|-------------------|
 --9S--7--6-----7-----7--0--|--L------------------|-------------------|
 --9S--7-----7-----5--------|---------------------|-------------------|
 ---------------------------|---------------------|-------------------|

W
 
 -------------------|-------------------|-------------------|-------------------|
 -------------------|-------------------|-------------------|-------------------|
 -------------------|-------------------|-------------------|-------------------|
 -------------------|-------------------|-------------------|-------------------|
 -------------------|-------------------|-------------------|-------------------|
 -------------------|-------------------|-------------------|-------------------|

[E] [E] [E] [E] [E] [E] [E] [E] [E] [E] [E] [E] [E] [E] [E] [E]  
 
 -----8--8-----8-----8-----|-----8--8-----8-----8--20---|
 -----8--8-----8-----8-----|-----8--8-----8-----8--20---|
 --------------------------|-----------------------19b--|
 --------------------------|----------------------------|
 --8--------8-----8-----8--|--L--------8-----8----------|
 --------------------------|----------------------------|

E E E E E S S E E Q E E E E E E
 
 -------------------------------20--20~--|--L----8p--5--7h--8--7p--5~--|
 -------------------------------20--20~--|--L--------------------------|
 --L---L--19b--19b--19b--19p-17-19--17~--|--L--------------------------|
 ----------------------------------------|-----------------------------|
 ----------------------------------------|-----------------------------|
 ----------------------------------------|-----------------------------|

E H. E E S S S S S S S S S S E E
 
 -----15g17~------------L--|------------10-10----------------------------|
 --------------------------|--10--13-10-------10-10-13-10-----------13b--|
 --------------------------|------------------------------12-11-10-------|
 --------------------------|---------------------------------------------|
 --------------------------|---------------------------------------------|
 --------------------------|---------------------------------------------|

Q S S S S H
 
 -------10-------12b-L~--------|
 --L-------13-10---------------|
 ------------------------------|
 ------------------------------|
 ------------------------------|
 ------------------------------|
 |---3---| |---3---| |---3---| 

S S S S S S S S S S S S S S S E E
 
 --14h-15p-14--------------------------------------------------|
 -------------15-17-13h-15p-13---------------------------------|
 ------------------------------16-14S-11h-12p-11---------------|
 ------------------------------------------------14-13---------|
 ------------------------------------------------------12S--9--|
 --------------------------------------------------------------|

E E E E E. S E E E E E E S S E E. S
 
 -------------------------------------|------------------------------------|
 ---------19--18--17S---(x)---------|--14--13----------------------------|
 ---------------------------------15--|----------14------14-19-14S--L---19-|
 -----19----------------------16------|--------------14--------------------|
 --L----------------------------------|------------------------------------|
 -------------------------------------|------------------------------------|

E E Q E E E E Q Q S S E Q
 
 --22S--17--17----------------------|-------------------------------|
 -----------------19S--15--15-------|-------------------------------|
 -----------------------------------|--16S----14----14S-16S-9--L----|
 -----------------16S--12---L-------|-------------------------------|
 ------------------------------12S--|--14S----12----12S-14S-7--L----|
 -----------------------------------|-------------------------------|
 |--3--| |--3--| |--3--| |--3--| |--3--| |--3--| |--3--| |--3--| 

S S S S S S S S S S S S S S S S S S S S S S S S
 
 --------------------------------------------------------------------------|
 --------------------------------------------------------------------------|
 --------------------------------------------------------14-------14-16-17-|
 --------------------14-------14-16-17-14-16-17-14-16-17----16-17----------|
 --14-15-17-14-15-17----15-17----------------------------------------------|
 --------------------------------------------------------------------------|
 |--3--| |--3--| |--3--| |--3--| 

S S S S S S S S S S S S H E E E E E E E E
 
 -----------------------------17-19-20brb-L~--------|------------------5--------|
 --------------------17-19-20-----------------------|-----8S--7--5-----5--------|
 --14-16-17-16-17-19--------------------------------|-----7---------------7--5--|
 ---------------------------------------------------|---------------7-----7--5--|
 ---------------------------------------------------|---------------------------|
 ---------------------------------------------------|---------------------------|

[E] [E] [E] [E] [E] [E] [E] [E] [E] [E] [E] [E] [E] [E] [E] [E]  
 
 ---------------------------|------------------5--------|
 ---------------------------|-----8S--7--5-----5--------|
 ---------------------------|-----7---------------7--5--|
 -----7S--5-----4-----5-----|---------------7-----7--5--|
 -----7S--5--5-----5-----3--|---------------------------|
 ---------------------------|---------------------------|

[E] [E] [E] [E] [E] [E] [E] [E] [E] [E] [E] [E] [E] [E] [E] [E]  
 
 ---------------------------|------------------5--------|
 ---------------------------|-----8S--7--5-----5--------|
 ---------------------------|-----7---------------7--5--|
 --7S--5--4-----4-----5-----|---------------7-----7--5--|
 --7S--5-----5-----5-----3--|---------------------------|
 ---------------------------|---------------------------|

[E] [E] [E] [E] [E] [E] [E] [E] [E] [E] [E] [E] [E] [E] [E] [E]  
 
 ---------------------------|------------------5--------|
 ---------------------------|-----8S--7--5-----5--------|
 ---------------------------|-----7---------------7--5--|
 -----7S--5-----4-----5-----|---------------7-----7--5--|
 -----7S--5--5-----5-----3--|---------------------------|
 ---------------------------|---------------------------|

E E E E E E E E W
 
 ----------------------------|-----|-----|-----|-----|-----|-------------------|
 ----------------------------|-----|-----|-----|-----|-----|-------------------|
 ----------------------------|-----|-----|-----|-----|-----|-------------------|
 --7S--5--4-----4-----5S--7--|-----|-----|-----|-----|-----|-------------------|
 --7S--5-----5-----3--3S--5--|-----|-----|-----|-----|-----|-------------------|
 ----------------------------|-----|-----|-----|-----|-----|-------------------|

[E] [E] [E] [E] [E] [E] [E] [E] [E] [E] [E] [E] [E] [E] [E] [E]  
 
 --------------------------|--------------------------|-----|-----|-----|-----|
 -----7--7-----7--------5--|--L-----5-----3-----5--7--|-----|-----|-----|-----|
 -----7--7-----7--------5--|--L-----5-----4-----3--7--|-----|-----|-----|-----|
 --0--------0--L--0--0-----|-----0-----0-----0--------|-----|-----|-----|-----|
 --------------------------|--------------------------|-----|-----|-----|-----|
 --------------------------|--------------------------|-----|-----|-----|-----|

[E] [E] [E] [E] [E] [E] [E] [E] [E] [E] [E] [E] [E] [E] [E] [E]  
 
 -----|-----|--------------------------|--------------------------|-----|-----|
 -----|-----|-----7--7-----7--------5--|--L-----5-----3-----5--7--|-----|-----|
 -----|-----|-----7--7-----7--------5--|--L-----5-----4-----3--7--|-----|-----|
 -----|-----|--0--------0--L--0--0-----|-----0-----0-----0--------|-----|-----|
 -----|-----|--------------------------|--------------------------|-----|-----|
 -----|-----|--------------------------|--------------------------|-----|-----|

[E] [E] [E] [E] [E] [E] [E] [E]  
 
 -----|-----|-----|-----|------------------5--------|
 -----|-----|-----|-----|-----8S--7--5-----5--------|
 -----|-----|-----|-----|-----7---------------7--5--|
 -----|-----|-----|-----|---------------7-----7--5--|
 -----|-----|-----|-----|---------------------------|
 -----|-----|-----|-----|---------------------------|

[E] [E] [E] [E] [E] [E] [E] [E]  
 
 ----------------------------||
 ----------------------------||
 ----------------------------||
 --7S--5--4-----5-----5S--7--||
 --7S--5-----5--L--3--3S--5--||
 ----------------------------||

Duration Legend
 
 ---------------

W - whole
H - half
Q - quarter
E - 8th
S - 16th
T - 32nd
X - 64th
. - note dotted
|-n-| - n-tuplets
Tablature Legend
 
 ----------------

L - tied note
x - dead note
g - grace note
(n) - ghost note
> - accentuded note
NH - natural harmonic
AH - artificial harmonic
TH - tapped harmonic
SH - semi harmonic
PH - pitch harmonic
h - hammer on
p - pull off
b - bend
br - bendRelease
pb - preBend
pbr - preBendRelease
brb - bendReleaseBend
\n/ - tremolo bar dip
\n - tremolo bar dive
-/n - tremolo bar Release up
/n\ - tremolo bar inverted dip
/n - tremolo bar return
-\n - tremolo bar Release down
S - shift slide
s - legato slide
/ - slide into from below or out of upwards
\ - slide into from above or out of downwards
~ - vibrato
W - wide vibrato
tr - trill
TP - tremolo picking
T - tapping
S - slap
P - pop
< - fade in
^ - brush up
v - brush down

Important: The song above is NOT stored on the Chordie server. The original song is hosted at www.guitaretab.com. Chordie works as a search engine and provides on-the-fly formatting. Chordie does not index songs against artists'/composers' will. To remove this song please click here.

Text color:
Chord color:
Chord grids: 
Font size:    
Page size: 

E
Rate #1 of 2 versions

Jango Player

Login - add to songbook

SHARE PAGE  



You need to log in to post comments