Guitar Tabs, Chords and Lyrics
Major upgrade!! After one year development the new version of Chordie is now online! Please give feedback.


Greensky Greenlake   Dead Meadow

 
 |-------5---------7-4---------0-----------------|
 |-------3---------5-----------2------0-----3-0--|
 |----4--4------6--6-----------2------1h2p1------|
 |--------------------------4---------2----------|
 |-2---------2-----------2---------2--2----------|
 |-----------------------------------------------|

 


 Repeat


 


 Variation I


 


 2:40 2:43


 


 

 
 |--0---0-0-0--0-0-0-0-0-0-0-0-0-0--|
 |--0---0-0-0--0-0-0-0-0-0-0-0-0-0--|
 |--1---1-1-1--1-1-1-1-1-1-1-1-1-1--|
 |--2---2-2-2--2-2-2-2-2-2-2-2-2-2--|
 |--2---2-2-2--2-2-2-2-2-2-2-2-2-2--|
 |--0---0-0-0--0-0-0-0-0-0-0-0-0-0--|

 


 _____________________________________________________________________________


 


 Bridge solo


 


 With wah-wah pedal.


 


 0:40 0:44 0:48 0:51


 [(1)] [(1/2)]  

 
 |-----------------------------------------------------------------------|
 |-----------------------------------------------------------------------|
 |--------------4^--4=======-2-4--2--------------------------4^--2=====--|
 |--2-4--4-2-4----------------------4--2--4=====-2-4--4-2-4--------------|
 |-----------------------------------------------------------------------|
 |-----------------------------------------------------------------------|

 


 


 0:52 0:54 0:57 0:59 1:03


 [(1)]  

 
 |---------------------------------------------------------------------|
 |---------------------------------------------------------------------|
 |--4-2-4----2------------------------4^--4=====--2-4--2---------------|
 |---------4----4--2=====-2-4--4-2-4---------------------4--2--4=====--|
 |---------------------------------------------------------------------|
 |---------------------------------------------------------------------|

 


 


 1:03 1:07 |1:37


 


 

 
 |------------------------------------------|------------|
 |------------------------------------------|------------|
 |---------2----2-----------2-4--2----2-----|------------|
 |--2-4--4----4----4-2=====---------4----4--|------------|
 |------------------------------------------|--4-2=====--|
 |------------------------------------------|------------|


Important: The song above is NOT stored on the Chordie server. The original song is hosted at www.guitaretab.com. Chordie works as a search engine and provides on-the-fly formatting. Chordie does not index songs against artists'/composers' will. To remove this song please click here.

This song is displayed as text-only. Transposing and tuning is only available for chordpro-songs.
Rate #2 of 2 versions

Login - add to songbook

SHARE PAGE  



You need to log in to post comments