Guitar Tabs, Chords and Lyrics
Major upgrade!! After one year development the new version of Chordie is now online! Please give feedback.


Trapped in a Corner  Death

As recorded by Death
(From the 1992 Album INDIVIDUAL THOUGHT PATTERNS)
Transcribed by James Williams (Inverted)
Words by Chuck Schuldiner Music by Cjhuck Schuldiner
Gtr I (D G C F A D) - 'Chuck Schuldiner'
Gtr II (D G C F A D) - 'Andy LaRocque'
Intro
Death Metal Q=168
N.C.
[3/4] Gtr I[4/4]
~~
E E E E Q E E E E E E E E
 
 ||----------------|-----------------------|
 ||o---------------|-----------------------|
 ||----10-11---10--|---10-11---10-11-10----|
 ||--8-------8-----|-8-------8----------11-|
 ||o---------------|-----------------------|
 ||----------------|-----------------------|

|
| Gtr II
| ~~
| E E E E Q E E E E E E E E
 
 ||----------------|-----------------------|
 ||o---------------|-----------------------|
 ||----------------|-----------------------|
 ||----10-11---10--|---10-11---10-11-10----|
 ||o-8-------8-----|-8-------8----------11-|
 ||----------------|-----------------------|

[3/4] ~~[4/4]
E E E E Q E E E E E E E E
 
 |-----------------|-------------------------|
 |-----------------|-------------------------|
 |----13-14----13--|----13-14----13-14-13----|
 |-11-------11-----|-11-------11----------14-|
 |-----------------|-------------------------|
 |-----------------|-------------------------|

|
| ~~
| E E E E Q E E E E E E E E
 
 |-----------------|-------------------------|
 |-----------------|-------------------------|
 |-----------------|-------------------------|
 |----13-14----13--|----13-14----13-14-13----|
 |-11-------11-----|-11-------11----------14-|
 |-----------------|-------------------------|

N.C.
[3/4] [4/4]  
[E] [E] [E] [E] [E] [E] [E] [E] [E] [E] [E] [E] [E] [E]  
 
 |-------------------|-------------------------|
 |-------------------|-------------------------|
 |----12-13----12-13-|----12-13----12-13----12-|
 |-10-------10-------|-10-------10-------10----|
 |-------------------|-------------------------|
 |-------------------|-------------------------|

|
| E E E E E E E E E E E E E E
 
 |-------------------|-------------------------|
 |-------------------|-------------------------|
 |-------------------|-------------------------|
 |----12-13----12-13-|----12-13----12-13----12-|
 |-10-------10-------|-10-------10-------10----|
 |-------------------|-------------------------|

[3/4] [4/4]  
[E] [E] [E] [E] [E] [E] [E] [E] [E] [E] [E] [E] [E] [E]  
 
 |-------------------|---------------------------||
 |-------------------|--------------------------o||
 |----15-16----15-16-|----15-16----15-16----15---||
 |-13-------13-------|-13-------13-------13------||
 |-------------------|--------------------------o||
 |-------------------|---------------------------||

|
| E E E E E E E E E E E E E E
 
 |-------------------|---------------------------||
 |-------------------|--------------------------o||
 |-------------------|---------------------------||
 |----15-16----15-16-|----15-16----15-16----15---||
 |-13-------13-------|-13-------13-------13-----o||
 |-------------------|---------------------------||

Pre-Verse
6[A5]/8 7/8 6/8 7/8
E E E E Q E E E E E E E E E E E Q E E E E E E E
 
 ||---------------|-------------------|--------------|-------------------|
 ||o-10-----------|-10----------------|-10-----------|-10----------------|
 ||------9---9----|------9----9---9---|-----9---9----|------9----9---9---|
 ||--------7------|---------7---7---7-|-------7------|---------7---7---7-|
 ||o--------------|-------------------|--------------|-------------------|
 ||---------------|-------------------|--------------|-------------------|

|
| H. +E +H. +H. +E +H.
 
 ||---------------|-------------------|--------------|-------------------|
 ||o--------------|-------------------|--------------|-------------------|
 ||---------------|-------------------|--------------|-------------------|
 ||---------------|-------------------|--------------|-------------------|
 ||o--7-----------|-(7)-(7)-----------|-(7)----------|-(7)-(7)-----------|
 ||---5-----------|-(5)-(5)-----------|-(5)----------|-(5)-(5)-----------|

6[C5]/8 7/8
E E E E Q E E E E E E E
 
 |-----------------|--------------------------|
 |-13--------------|--13----------------------|
 |-----12----12----|-------12-----12----12----|
 |--------10-------|-----------10----10----10-|
 |-----------------|--------------------------|
 |-----------------|--------------------------|

|
| H. +E +H.
 
 |-----------------|--------------------------|
 |-----------------|--------------------------|
 |-----------------|--------------------------|
 |-----------------|--------------------------|
 |-10--------------|-(10)-(10)----------------|
 |--8--------------|--(8)--(8)----------------|

6[G5]/8 7/8
E E E E Q E E E E E E E
 
 |-------------|--------------------||
 |-8-----------|--8----------------o||
 |----7---7----|------7----7---7----||
 |------5------|---------5---5---5--||
 |-------------|-------------------o||
 |-------------|--------------------||

|
| H. +E +H.
 
 |-------------|--------------------||
 |-------------|-------------------o||
 |-------------|--------------------||
 |-------------|--------------------||
 |-5-----------|-(5)-(5)-----------o||
 |-3-----------|-(3)-(3)------------||

6[A5]/8 7/8 6/8 7/8
E E E E Q E E E E E E E E E E E Q E E E E E E E
 
 |--------------|-------------------|--------------|-------------------|
 |-10-----------|-10----------------|-10-----------|-10----------------|
 |-----9---9----|------9----9---9---|-----9---9----|------9----9---9---|
 |-------7------|---------7---7---7-|-------7------|---------7---7---7-|
 |--------------|-------------------|--------------|-------------------|
 |--------------|-------------------|--------------|-------------------|

|
| H. +E +H. +H. +E +H.
 
 |--------------|-------------------|--------------|-------------------|
 |--------------|-------------------|--------------|-------------------|
 |--------------|-------------------|--------------|-------------------|
 |--------------|-------------------|--------------|-------------------|
 |--7-----------|-(7)-(7)-----------|-(7)----------|-(7)-(7)-----------|
 |--5-----------|-(5)-(5)-----------|-(5)----------|-(5)-(5)-----------|

N.C.
[3/4] Gtrs I, II
 
 PM--| PM--| PM--| PM--| PM--| PM--| PM--| PM--|

E S S E E S S E E S S E E S S E E S S E E S S E E S S E E S S E
 
 ||------------------|-----------------|-----------------|-------------------||
 ||o-----------------|-----------------|-----------------|------------------o||
 ||------------------|-----------------|-----------------|-------------------||
 ||------------------|-----------------|-----------------|-------------------||
 ||o-1-------4-------|-1-------4-------|-0-------3-------|-0-------3--------o||
 ||----2-2-2---2-2-2-|---2-2-2---2-2-2-|---1-1-1---1-1-1-|---1-1-1---1-1-1---||

[A5] [C5] [B5] [D5] [C5] [E5] [D5] [F5]  
 
 PM--| PM--| PM--| PM--| PM--| PM--| PM--| PM--|

E S S E E S S E E S S E E S S E E S S E E S S E E S S E E S S E
 
 ||------------------|-----------------|-----------------|--------------------||
 ||o-----------------|-----------------|-----------------|-------------------o||
 ||------------------|-----------------|-----------------|--------------------||
 ||--2-------5-------|-4-------7-------|-5-------9-------|-7-------10---------||
 ||o-0-0-0-0-3-0-0-0-|-2-0-0-0-5-0-0-0-|-3-0-0-0-7-0-0-0-|-5-0-0-0--8-0-0-0--o||
 ||------------------|-----------------|-----------------|--------------------||

Verse
N.C.
 
 PM--| PM--| PM--| PM--| PM--| PM--| PM--| PM--|

E S S E E S S E E S S E E S S E E S S E E S S E E S S E E S S E
 
 ||------------------|-----------------|-----------------|-------------------||
 ||o-----------------|-----------------|-----------------|------------------o||
 ||------------------|-----------------|-----------------|-------------------||
 ||------------------|-----------------|-----------------|-------------------||
 ||o-1-------4-------|-1-------4-------|-0-------3-------|-0-------3--------o||
 ||----2-2-2---2-2-2-|---2-2-2---2-2-2-|---1-1-1---1-1-1-|---1-1-1---1-1-1---||

[A5] [C5] [B5] [D5] [C5] [D5] [F5]  
 
 PM--| PM--| PM--| PM--| PM--| PM--| PM--| PM--|

E S S E E S S E E S S E E S S E E S S E E S S E E S S E E S S E
 
 |-----------------|-----------------|-----------------|------------------|
 |-----------------|-----------------|-----------------|------------------|
 |-----------------|-----------------|-----------------|------------------|
 |-2-------5-------|-4-------7-------|-5-------9-------|-7-------10-------|
 |-0-0-0-0-3-0-0-0-|-2-0-0-0-5-0-0-0-|-3-0-0-0-7-0-0-0-|-5-0-0-0--8-0-0-0-|
 |-----------------|-----------------|-----------------|------------------|

[A5] [C5] [B5] [D5]  
 
 PM--| PM--| PM--| PM--|

E S S E E S S E E S S E E S S E
 
 |-----------------|-----------------|
 |-----------------|-----------------|
 |-----------------|-----------------|
 |-2-------5-------|-4-------7-------|
 |-0-0-0-0-3-0-0-0-|-2-0-0-0-5-0-0-0-|
 |-----------------|-----------------|

[C5] [E5] [D5] [F5]  
[4/4]  
 
 PM--| PM--| PM--| ~~~~~~~~~~~~

E S S E E S S E E S S E Q. +W
 
 |-----------------|---------------|---------|
 |-----------------|---------------|---------|
 |-----------------|---------------|---------|
 |-5-------9-------|-7-------10----|-(10)----|
 |-3-0-0-0-7-0-0-0-|-5-0-0-0--8----|--(8)----|
 |-----------------|---------------|---------|

Bridge
Q=172
5[A5]/8
Gtr I
PM| ~~ PM|
E E S S S E. E E S S E E E E E E E
 
 |----------------|---------------|------------|
 |----------------|---------------|-----10-----|
 |----------------|-------------9-|-7-9----9---|
 |-----7--9-10-9--|-----7--9-10---|----------7-|
 |-0-0------------|-0-0-----------|------------|
 |----------------|---------------|------------|

|
| Gtr II
| PM| PM|
| E E Q. E E Q. H E
 
 |----------------|---------------|------------|
 |----------------|---------------|------------|
 |----------------|---------------|------------|
 |-2-2------------|-2-2-----------|------------|
 |-0-0------------|-0-0-----------|------------|
 |----------------|---------------|------------|

5[A5]/8
PM| ~~~ PM|
E E S S S E. E E S S E E E E E E E
 
 |-----------------|---------------|------------|
 |-----------------|---------------|-----10-----|
 |-----------------|-------------9-|-7-9----9---|
 |-----7--9-10-[9]-|-----7--9-10---|----------7-|
 |-0-0-------------|-0-0-----------|------------|
 |-----------------|---------------|------------|

|
| PM| PM|
| E E Q. E E Q. H E
 
 |-----------------|---------------|------------|
 |-----------------|---------------|------------|
 |-----------------|---------------|------------|
 |-2-2-------------|-2-2-----------|------------|
 |-0-0-------------|-0-0-----------|------------|
 |-----------------|---------------|------------|

N.C.
Gtrs I, II
PM| ~~ PM|
E E S S S E. E E S S E E E E E E E 4x
 
 ||----------------|--------------|-------------||
 ||o---------------|--------------|-----10-----o||
 ||----------------|------------9-|-7-9----9----||
 ||------7-9-10-9--|-----7-9-10---|----------7--||
 ||o-0-0-----------|-0-0----------|------------o||
 ||----------------|--------------|-------------||

Chorus
Q=152
N.C. A5Bb5 N.C. BbA5
[4/4] ~ ~
S S E E E H S S E E E E E Q S S E E E H S S E E E E E Q 4x
 
 ||-----------------|------------------|----------------|-------------------||
 ||o----------------|------------------|----------------|------------------o||
 ||-----------------|------------------|----------------|-------------------||
 ||----------7------|---------7--------|---------7------|---------7---------||
 ||o-5h6p5----------|-5h6p5-------7-8--|-5h6p5----------|-5h6p5-------8-7--o||
 ||--------5---5----|-------5---5-5-6--|-------5---5----|-------5---5-6-5---||

Solo - LaRocque
Q=160
N.C.
Gtr I
 
 PM-------| PM| PM-------| PM| PM-------| PM--| PM---

S S S S E S S E S S S S E S S E S S S S E S S E S S
 
 |-------------------------------------------|--------------------------------------|
 |-------------------------------------------|--------------------------------------|
 |-------------------------------------------|--------------------------------------|
 |-------------7----------8----------------7-|------8---------------5-------7-------|
 |--0-0-0----0------0-0------0----0-0-0------|--0-0------0-0----0-0---0---0-----0-0-|
 |-------------------------------------------|--------------------------------------|

|
| Gtr II
| PM----|
 
 | |------3------| |------3-------| |------3------| |----3----|

| Q Q Q Q Q Q Q Q Q Q Q Q
 
 |---------------11-----[12]---11------------|--------------------------------------|
 |-12-----13-----13-----[14]---13-------13---|-12-----------------------------------|
 |-13-----14----------------------------14---|-13-----14-----13---------------------|
 |-------------------------------------------|--------15-----14---------------------|
 |-------------------------------------------|----------------------5---3-----------|
 |-------------------------------------------|--------------------------------6-----|
 -------| PM| PM----| PM| PM------------------| PM| ~~~~

S S S S E S S E S S S S E S S E S S S S E S S Q
 
 |---------------------------|-----------------------------------------------------------|
 |---------------------------|-----------------------------------------------------------|
 |---------------------------|--------------------------------------------------5--------|
 |---------7-----8---------7-|-------8-------------------------5-------------------------|
 |-0-0-0-0---0-0---0-0-0-0---|---0-0-----0------0-0----------0------------0-0------------|
 |---------------------------|-----------------------------------------------------------|

|
| \0.25/ \0.25/ \0.25/
| ~~
 
 | |------------3------------|

| W Q +Q +Q +Q +E +E
 
 |---------------------------|-----------------------------------------------------------|
 |---------------------------|-----------------------------------------------------------|
 |---------------------------|-/14-----(14)---------(14)---------(14)---------(14)-(14)\-|
 |-7-------------------------|-----------------------------------------------------------|
 |---------------------------|-/12-----(12)---------(12)---------(12)---------(12)-(12)\-|
 |-5-------------------------|-----------------------------------------------------------|

W
N.C.
 
 PM--------| PM| PM-----| PM-| PM----| PM| PM----

S S S S E S S E S S S S E S S E S S S S E S S E S S
 
 |------------------------------------------|-------------------------------------|
 |------------------------------------------|-------------------------------------|
 |------------------------------------------|-------------------------------------|
 |----------------7--------8--------------7-|-------8---------5-------7-----------|
 |--0-----0-0-0------0-0--------0-0--0-0----|--0--0---0-0-0-0---0-0----------0--0-|
 |------------------------------------------|-------------------------------------|

|
| >
| ~~~~~~~~~~~~~~~~~~~~~~~~~~
| Q +Q +E E E E H. +S S S S
 
 |-15-----------(15)-----(15)---------------|----------------------------------13-|
 |-17b19========(17)-----(17)r-17---15------|-13--------------------(13)-13-15----|
 |---------------------------------------17-|-15--------------------(15)----------|
 |------------------------------------------|-------------------------------------|
 |------------------------------------------|-------------------------------------|
 |------------------------------------------|-------------------------------------|
 ----------| PM| PM------| PM| PM------| PM| ~~~

S S S S E S S E S S S S E S S E S S S S E S S Q
 
 |-------------------------------------------------|--------------------------------------|
 |-------------------------------------------------|--------------------------------------|
 |-------------------------------------------------|----------------------------------5---|
 |--------------7-----------8-----------------7----|--------8-----------------5-----------|
 |--0--0--0--0--------0--0--------0--0--0--0-------|--0--0--------0--0--0--0-----0-0------|
 |-------------------------------------------------|--------------------------------------|

|
| ~~~
| S S S S S S S S S S E S S S S S S S S S S S S E E Q
 
 |-15-13-------------------------------------------|---------------------------------15\--|
 |-------15-13-------------------------------------|-------------------------15-13--------|
 |-------------15-12-------12-15-17\---------------|-------------------12-15--------------|
 |-------------------15-12-------------15-12-------|-------------12-15--------------------|
 |-------------------------------------------15-13-|-------13-15--------------------------|
 |-------------------------------------------------|-13-15--------------------------------|

N.C.
 
 PM------| PM| PM------| PM| PM------| PM| PM---

S S S S E S S E S S S S E S S E S S S S E S S E S S
 
 |-------------------------------------------------|---------------------------------------|
 |-------------------------------------------------|---------------------------------------|
 |-------------------------------------------------|---------------------------------------|
 |--------------7-----------8-----------------7----|--------8-----------------5------7-----|
 |--6--6--6--6--------6--6--------6--6--6--6-------|--6--6--------6--6--6--6-----6-6---6-6-|
 |-------------------------------------------------|---------------------------------------|

|
| ~~~
| S S S S S S S S S S S S S S S S S S S S S S S S Q Q
 
 |-------------------------------------------------|-20-17-15----17-15---------------------|
 |----------13-------13-15----13-15-17-13-15-17-18-|----------18-------18-17-15\-----------|
 |-12-14-15----14-15-------15----------------------|---------------------------------------|
 |-------------------------------------------------|---------------------------------------|
 |-------------------------------------------------|---------------------------------------|
 |-------------------------------------------------|---------------------------------------|
 ----------| PM| PM-----| PM| PM------| PM| ~

S S S S E S S E S S S S E S S E S S S S E S S Q
 
 |-----------------------------------------------|----------------------------------|
 |-----------------------------------------------|----------------------------------|
 |-----------------------------------------------|-----------------------------5----|
 |-------------7-----------8----------------7----|--------8--------------5----------|
 |--6--6--6-6--------6--6--------6-6--6--6-------|--6--6-----6--6--6--6----6-6------|
 |-----------------------------------------------|----------------------------------|

|
| ~~
| S S E S S S S S S E S S S S S S E S S S S H
 
 |-----------------------------------------------|----------------------------------|
 |-15p13---------------13-15p13---------------13-|-15p13-------------13-------------|
 |-------15---12h14h15----------15---12h14h15----|-------15-12h14h15----15----------|
 |-----------------------------------------------|----------------------------------|
 |-----------------------------------------------|----------------------------------|
 |-----------------------------------------------|----------------------------------|

N.C.
 
 PM------| PM| PM-----| PM| PM------| PM| PM---

S S S S E S S E S S S S E S S E S S S S E S S E S S
 
 |-------------------------------------------|----------------------------------|
 |-------------------------------------------|----------------------------------|
 |-------------------------------------------|----------------------------------|
 |-------------7----------8----------------7-|--------8-------------5-----7-----|
 |--6--6--6-6--------6-6--------6-6--6--6----|--6--6-----6--6--6-6----6-6---6-6-|
 |-------------------------------------------|----------------------------------|

|
| ~~
| S S E S S E S S E S S E S S E S S E H
 
 |-18p15------------15---18p15------------15-|-18p15----------15----------------|
 |-------15---18p15------------15---18p15----|-------15-18p15------15-----------|
 |-------------------------------------------|----------------------------------|
 |-------------------------------------------|----------------------------------|
 |-------------------------------------------|----------------------------------|
 |-------------------------------------------|----------------------------------|

[C5]  
 
 ------------| PM| PM--------| PM----| PM-------| PM|

S S S S E S S E S S S S E S S E S S S S E S S Q
 
 |--------------------------------------------|-------------------------------------|
 |--------------------------------------------|-------------------------------------|
 |--------------------------------------------|--------------------------------5----|
 |--------------7-------8------------------7--|----------8---------------5-----5----|
 |--6-----6-6-6---6-6--------6--6----6-6------|--6-----6-----6---6--6-6----6-6-3----|
 |--------------------------------------------|-------------------------------------|

|
| ~~~~~~~
| H +E S E. +E Q +E E H
 
 |-22b24==============(22)r-22-22b24r====(22)-|-22b25======(22)r---22---22----------|
 |--------------------------------------------|-------------------------------------|
 |--------------------------------------------|-------------------------------------|
 |--------------------------------------------|-------------------------------------|
 |--------------------------------------------|-------------------------------------|
 |--------------------------------------------|-------------------------------------|

N.C.
 
 PM----| PM| PM----| PM| PM-----| PM| PM---

S S S S E S S E S S S S E S S E S S S S E S S E S S
 
 |------------------------------------|---------------------------------|
 |------------------------------------|---------------------------------|
 |------------------------------------|---------------------------------|
 |----------7-------8------------7----|------8------------5------7------|
 |--0-0-0-0---0-0-------0-0-0-0-------|--0-0----0-0--0-0----0-0-----0-0-|
 |------------------------------------|---------------------------------|

|
| ~~~~~~~~~~~~~~~~~~~ ~~ ~~
| H +E Q S S Q E E Q E E
 
 |------------------------------------|---------------------------------|
 |------------------------------------|-------------------------15------|
 |-14-------------(14)-15-------14-15-|-12-----14---15---14-----14-17---|
 |-14-------------(14)-15-------14-15-|-12-----14---15---14--------17---|
 |------------------------------------|---------------------------------|
 |------------------------------------|---------------------------------|
 --------| PM| PM-----| PM| PM----------| PM| ~~

S S S S E S S E S S S S E S S E S S S S E S S Q
 
 |---------------------------------|--------------------------------------|
 |---------------------------------|--------------------------------------|
 |---------------------------------|-------------------------------5------|
 |-----------7-------8-----------7-|------8-----------------5-------------|
 |--0-0-0-0-----0-0----0-0--0-0----|--0-0----0-0----0----0----0-0---------|
 |---------------------------------|--------------------------------------|

|
| ~~ ~~ ~~ ~~
 
 | |----3----|

| Q E E Q E E Q E E E Q E E
 
 |------------------15-------------|-17--------------------20-----17-15---|
 |-18-------17-15---15-----18---17-|-17-----17h==20p==18---20-----17-15---|
 |-17-------16-14----------17---16-|--------16h==19p==17------------------|
 |---------------------------------|--------------------------------------|
 |---------------------------------|--------------------------------------|
 |---------------------------------|--------------------------------------|

N.C.
 
 PM----| PM| PM-----| PM-| PM----| PM| PM---

S S S S E S S E S S S S E S S E S S S S E S S E S S
 
 |----------------------------------|---------------------------------|
 |----------------------------------|---------------------------------|
 |----------------------------------|---------------------------------|
 |----------7-------8-------------7-|-------8---------5-------7-------|
 |--0-0-0-0---0-0-------0-0--0-0----|--0--0---0-0-0-0---0-0-------0-0-|
 |----------------------------------|---------------------------------|

|
| ~~~~~~~~~~~~~~~~~~~ ~~~
| H +E E E E H. +Q
 
 |----------------------------------|---------------------------------|
 |-17-------------(17)-15-----------|---------------------------------|
 |-16-------------(16)-14---17---15-|-14--------------------(14)\-----|
 |--------------------------17---15-|-14--------------------(14)\-----|
 |----------------------------------|---------------------------------|
 |----------------------------------|---------------------------------|
 ----------| PM| PM------| PM| PM------| PM| ~~~

S S S S E S S E S S S S E S S E S S S S E S S Q
 
 |-------------------------------------------------|---------------------------------------|
 |-------------------------------------------------|---------------------------------------|
 |-------------------------------------------------|----------------------------------5----|
 |--------------7-----------8-----------------7----|--------8-----------------5------------|
 |--0--0--0--0--------0--0--------0--0--0-0--------|--0--0--------0--0--0--0-----0-0-------|
 |-------------------------------------------------|---------------------------------------|

|
 
 | |---3----|

| S S S S S S S S S S S S E E E S S S S S S S S E E E E
 
 |-15-13-------------------------------------------|---------------------------------------|
 |-------15-13-------------------------------------|---------------------------------13\---|
 |-------------15-12-------------------------------|-------------------12-15-14-15---------|
 |-------------------15-12-------------------------|-------------12-15---------------------|
 |-------------------------15-13-------------------|-------13-15---------------------------|
 |-------------------------------15-13-10S==8S==10-|-13-15---------------------------------|

N.C.
 
 PM------| PM| PM----| PM| PM-----| PM-| PM---

S S S S E S S E S S S S E S S E S S S S E S S E S S
 
 |------------------------------|----------------------------------|
 |------------------------------|----------------------------------|
 |------------------------------|----------------------------------|
 |-----------7-----8----------7-|-------8------------5-------7-----|
 |-6-6--6--6---6-6---6-6-6-6----|--6-6-----6-6--6-6-----6--6---6-6-|
 |------------------------------|----------------------------------|

|
| ~~~
| E H. E E E E E E Q.
 
 |-----15--------------------15-|-18---15-17--------15-------------|
 |------------------------------|--------------18------17----------|
 |------------------------------|----------------------------------|
 |------------------------------|----------------------------------|
 |------------------------------|----------------------------------|
 |------------------------------|----------------------------------|
 ---------| PM| PM-----| PM| PM-----| PM| ~~

S S S S E S S E S S S S E S S E S S S S E S S Q
 
 |-----------------------------------|-------------------------------|
 |-----------------------------------|-------------------------------|
 |-----------------------------------|----------------------------5--|
 |------------7-------8------------7-|-------8------------5----------|
 |--6-6--6-6-----6-6-----6-6--6-6----|--6-6-----6-6--6-6-----6-6-----|
 |-----------------------------------|-------------------------------|

|
| E E E E E E E E E E E E E E Q
 
 |-----------------------------------|-------------------------------|
 |-13---10---11------10--------------|-------------------------------|
 |--------------12------10---12------|-10----------------------------|
 |--------------------------------13-|------12-13---10---12------13--|
 |-----------------------------------|----------------------13-------|
 |-----------------------------------|-------------------------------|

N.C.
 
 PM----| PM| PM----| PM-| PM----| PM| PM---

S S S S E S S E S S S S E S S E S S S S E S S E S S
 
 |----------------------------|------------------------------|
 |----------------------------|------------------------------|
 |----------------------------|------------------------------|
 |----------7-----8---------7-|--------8---------5-----7-----|
 |--6-6-6-6---6-6---6-6-6-6---|---6--6---6-6-6-6---6-6---6-6-|
 |----------------------------|------------------------------|

|
| ~~~~~~~~~~~~~~~~~~~~~~~~~~~~~~~~~
| W +W
 
 |----------------------------|------------------------------|
 |----------------------------|------------------------------|
 |----------------------------|------------------------------|
 |----------------------------|------------------------------|
 |-11-------------------------|-(11)-------------------------|
 |----------------------------|------------------------------|

[C5]  
 
 --------------| PM| PM-------| PM| PM----------| PM---|

S S S S E S S E S S S S E S S E S S S S E S S Q
 
 |------------------------------------------|-----------------------------------------------------|
 |------------------------------------------|-----------------------------------------------------|
 |------------------------------------------|-------------------------------------------5---------|
 |-----------------7-----8--------------7---|---------8--------------------5------------5---------|
 |--6-6----6----6----6-6---6-6---6--6-------|--6-6----------6-6----6----6-------6----6--3---------|
 |------------------------------------------|-----------------------------------------------------|

|
| ~~~~~~~~~~~~~~~~~ ~~~~~~~~
 
 | |----3----| |----3----| |----3----| |---3---|

| E E E H +E +E E E E E E E E E E E +E
 
 |----------------15-----------(15)---(15)\-|-----------------------------------------------------|
 |-----------13-----------------------------|--------------17---------------------15---17-(17)\---|
 |------12----------------------------------|-------------------17-----------15-------------------|
 |-12---------------------------------------|-----------17-----------17---15----------------------|
 |------------------------------------------|------15---------------------------------------------|
 |------------------------------------------|-15--------------------------------------------------|

Solo - Schuldiner R.I.P...
Q=176
N.C.
T T T T T T
 
 |-------------------11:8--------------------| |-------------------11:8--------------------|

S S S S S S S S S S S S S S S S S S S S S S
 
 |-----------------------------------------------------------------------------------------------|
 |-15p13p==10h==13p10---17p==13p==10-18p==13p==10-17p13p==10h==13p10---15p==13p==10-17p==13p==10-|
 |-----------------------------------------------------------------------------------------------|
 |-----------------------------------------------------------------------------------------------|
 |-----------------------------------------------------------------------------------------------|
 |-----------------------------------------------------------------------------------------------|

|
 
 | PM--------------------------------------------------------------------------------------|

| S S S S S S S S S S S S S S S S
 
 |-----------------------------------------------------------------------------------------------|
 |-----------------------------------------------------------------------------------------------|
 |-----------------------------------------------------------------------------------------------|
 |-----------------------------------------------------------------------------------------------|
 |-----------------------------------------------------------------------------------------------|
 |--5----5----5-------5----5----5-------5----5-----5----5----5-------5----5----5-------5----5----|

N.C.
T T T T T T
 
 |-------------------11:8--------------------| |-------------------11:8--------------------|

S S S S S S S S S S S S S S S S S S S S S S
 
 |-----------------------------------------------------------------------------------------------|
 |-18p13p==10h==13p10---17p==13p==10-15p==13p==10-17p13p==10h==13p10---18p==13p==10-17p==13p==10-|
 |-----------------------------------------------------------------------------------------------|
 |-----------------------------------------------------------------------------------------------|
 |-----------------------------------------------------------------------------------------------|
 |-----------------------------------------------------------------------------------------------|

|
 
 | PM--------------------------------------------------------------------------------------|

| S S S S S S S S S S S S S S S S
 
 |-----------------------------------------------------------------------------------------------|
 |-----------------------------------------------------------------------------------------------|
 |-----------------------------------------------------------------------------------------------|
 |-----------------------------------------------------------------------------------------------|
 |--8----8----8-------8----8----8-------8----8-----8----8----8-------8----8----8-------8----8----|
 |-----------------------------------------------------------------------------------------------|

N.C.
T T T T T T
 
 |-------------------11:8--------------------| |-------------------11:8--------------------|

S S S S S S S S S S S S S S S S S S S S S S
 
 |-----------------------------------------------------------------------------------------------|
 |-20p13p==10h==13p10---22p==13p==10-24p==13p==10-22p13p==10h==13p10---20p==13p==10-22p==13p==10-|
 |-----------------------------------------------------------------------------------------------|
 |-----------------------------------------------------------------------------------------------|
 |-----------------------------------------------------------------------------------------------|
 |-----------------------------------------------------------------------------------------------|

|
 
 | PM--------------------------------------------------------------------------------------|

| S S S S S S S S S S S S S S S S
 
 |-----------------------------------------------------------------------------------------------|
 |-----------------------------------------------------------------------------------------------|
 |-----------------------------------------------------------------------------------------------|
 |-----------------------------------------------------------------------------------------------|
 |-----------------------------------------------------------------------------------------------|
 |--8----8----8-------8----8----8-------8----8-----8----8----8-------8----8----8-------8----8----|

N.C.
T T T T T T
 
 |-------------------11:8--------------------| |-------------------11:8--------------------|

S S S S S S S S S S S S S S S S S S S S S S
 
 |-----------------------------------------------------------------------------------------------|
 |-24p13p==10h==13p10---22p==13p==10-20p==13p==10-22p13p==10h==13p10---24p==13p==10-22p==13p==10-|
 |-----------------------------------------------------------------------------------------------|
 |-----------------------------------------------------------------------------------------------|
 |-----------------------------------------------------------------------------------------------|
 |-----------------------------------------------------------------------------------------------|

|
 
 | PM--------------------------------------------------------------------------------------|

| S S S S S S S S S S S S S S S S
 
 |-----------------------------------------------------------------------------------------------|
 |-----------------------------------------------------------------------------------------------|
 |-----------------------------------------------------------------------------------------------|
 |-----------------------------------------------------------------------------------------------|
 |--7----7----7-------7----7----7-------7----7-----7----7----7-------7----7----7-------7----7----|
 |-----------------------------------------------------------------------------------------------|

N.C.
~~~~~
 
 |---3---|

H.. S S S
 
 |--------------------------------------------|
 |--------------------------------------------|
 |-/16-----------------------------16h17p==14-|
 |--------------------------------------------|
 |--------------------------------------------|
 |--------------------------------------------|

|
 
 | PM----------------------------------------

| S S S S S S S S S S S S S S S S
 
 |--------------------------------------------|
 |--------------------------------------------|
 |--------------------------------------------|
 |--------------------------------------------|
 |--------------------------------------------|
 |---5---5-5-5-5-5-5-5-5-5-5-5-5-5--5----5----|

~~
W
 
 |----------------------------------|
 |----------------------------------|
 |----------------------------------|
 |-15-------------------------------|
 |----------------------------------|
 |----------------------------------|

|
 
 |--------------------------------|

| S S S S S S S S S S S S S S S S
 
 |----------------------------------|
 |----------------------------------|
 |----------------------------------|
 |----------------------------------|
 |--8-8-8-8-8-8-8-8-8-8-8-8-8-8-8-8-|
 |----------------------------------|

N.C.
 
 |----3----| |----3----| |----3----| |----3----|

[E] [E] [E] [E] [E] [E] [E] [E] [E] [E] [E] [E]  
 
 |-------------------------------17----------------------------|
 |----------------15---17---18--------18---17---15-------------|
 |-14---16---17------------------14------------------17---16---|
 |----------------12---14---15--------15---14---12-------------|
 |-12---14---15--------------------------------------15---14---|
 |-------------------------------------------------------------|

|
 
 | PM----------------------------------------------------------

| S S S S S S S S S S S S S S S S
 
 |-------------------------------------------------------------|
 |-------------------------------------------------------------|
 |-------------------------------------------------------------|
 |-------------------------------------------------------------|
 |-----------------5-5----5----5--7-7----7----7--5-5----5----5-|
 |--8-8----8----8----------------------------------------------|
 |----3----| |----3----| |----3----| |----3----|

[E] [E] [E] [E] [E] [E] [E] [E] [E] [E] [E] [E]  
 
 |-------------------------------17-----------------------------|
 |----------------15---17---18--------18---17---15--------------|
 |-14---16---17------------------14------------------17---16----|
 |----------------12---14---15--------15---14---12--------------|
 |-12---14---15--------------------------------------15---14----|
 |--------------------------------------------------------------|

|
 
 |-----------------------------------------------------------|

| S S S S S S S S S S S S S S S S
 
 |--------------------------------------------------------------|
 |--------------------------------------------------------------|
 |--------------------------------------------------------------|
 |--------------------------------------------------------------|
 |-----------------5-5----5----5--------------------------------|
 |--8-8----8----8-----------------8-8----8----8--7-7----7----7--|

N.C.
~~ TP
[B] [B]  
 
 |------------------17b19r==============|
 |--------------------------------------|
 |--------------------------------------|
 |--------------------------------------|
 |-12-----------------------------------|
 |--------------------------------------|

|
 
 | PM-----------------------------------

| S S S S S S S S S S S S S S S S
 
 |--------------------------------------|
 |--------------------------------------|
 |--------------------------------------|
 |--------------------------------------|
 |--------------------------------------|
 |--5-5-5-5-5-5-5-5--5----5-5-5-5-5-5-5-|
 |--------6---------| |--------6---------| |--------6---------| |--------5--------|

S S S S S S S S S S S S S S S S S S S S S S S
 
 |-15-15-----------------------------------------------------------------------------------|
 |---------17-17-15---15-------------------------------------------------------------------|
 |-----------------------17-17---16-16-14---14---------------------------------------------|
 |---------------------------------------------17-17---16-16-14---14-12-12-----------------|
 |---------------------------------------------------------------------------15---15---14--|
 |-----------------------------------------------------------------------------------------|

|
 
 |-----------------------------------------------------------------------------------|

| S S S S S S S S S S S S S S S S
 
 |-----------------------------------------------------------------------------------------|
 |-----------------------------------------------------------------------------------------|
 |-----------------------------------------------------------------------------------------|
 |-----------------------------------------------------------------------------------------|
 |--8----8-----8----8-----8----8-----8----8-----8----8-----8----8-----8----8----8----8-----|
 |-----------------------------------------------------------------------------------------|

N.C.
~~
 
 |----3----| |----3----|

[B] [E] [E] [E] [E] [E] [E]  
 
 |------------------------------------------------|
 |---------------------------------15---17---18---|
 |------------------14---16---18------------------|
 |---------------------------------12---14---15---|
 |-12---------------12---14---16------------------|
 |------------------------------------------------|

|
 
 | PM---------------------------------------------

| S S S S S S S S S S S S S S S S
 
 |------------------------------------------------|
 |------------------------------------------------|
 |------------------------------------------------|
 |------------------------------------------------|
 |------------------------------------------------|
 |--8-8-8-8-8-8-8-8--8-8----8----8--8-8----8----8-|

~~
W
 
 |------------------------------------|
 |-17---------------------------------|
 |------------------------------------|
 |-14---------------------------------|
 |------------------------------------|
 |------------------------------------|

|
 
 |--------------------------------|

| S S S S S S S S S S S S S S S S
 
 |------------------------------------|
 |------------------------------------|
 |------------------------------------|
 |------------------------------------|
 |--7-7-7-7-7-7-7-7-7-7-7-7-7-7-7-7---|
 |------------------------------------|

N.C.
 
 |--------6---------| |--------6---------| |--------6---------| |--------6---------|

S S S S S S S S S S S S S S S S S S S S S S S S
 
 |--------------------------------------------------------------------------------------------|
 |-/17-17---17-17-17---17-17-17---17-17-17---17-/12-12---12-12-12---12-12-12---12-12-12---12--|
 |--------------------------------------------------------------------------------------------|
 |--------------------------------------------------------------------------------------------|
 |--------------------------------------------------------------------------------------------|
 |--------------------------------------------------------------------------------------------|

|
 
 | PM---------------------------------------------------------------------------------|

| S S S S S S S S S S S S S S S S
 
 |--------------------------------------------------------------------------------------------|
 |--------------------------------------------------------------------------------------------|
 |--------------------------------------------------------------------------------------------|
 |--------------------------------------------------------------------------------------------|
 |--------------------------------------------------------------------------------------------|
 |---5----5-----5----5-----5----5-----5----5------5----5-----5----5-----5----5-----5----5-----|

N.C.
 
 |--------6---------| |--------6---------| |--------6---------| |--------6---------|

S S S S S S S S S S S S S S S S S S S S S S S S
 
 |--------------------------------------------------------------------------------------------|
 |-/15-15---15-15-15---15-15-15---15-15-15---15-/13-13---13-13-13---13-13-13---13-13-13---13--|
 |--------------------------------------------------------------------------------------------|
 |--------------------------------------------------------------------------------------------|
 |--------------------------------------------------------------------------------------------|
 |--------------------------------------------------------------------------------------------|

|
 
 | PM---------------------------------------------------------------------------------|

| S S S S S S S S S S S S S S S S
 
 |--------------------------------------------------------------------------------------------|
 |--------------------------------------------------------------------------------------------|
 |--------------------------------------------------------------------------------------------|
 |--------------------------------------------------------------------------------------------|
 |---8----8-----8----8-----8----8-----8----8------8----8-----8----8-----8----8-----8----8-----|
 |--------------------------------------------------------------------------------------------|

N.C.
 
 |--------6---------| |--------6---------| |--------6---------| |--------6---------|

Important: The song above is NOT stored on the Chordie server. The original song is hosted at www.guitaretab.com. Chordie works as a search engine and provides on-the-fly formatting. Chordie does not index songs against artists'/composers' will. To remove this song please click here.

Text color:
Chord color:
Chord grids: 
Font size:    
Page size: 

A5 B B5 C5 D5 E E5 F5 G5
Rate #1 of 2 versions

Login - add to songbook

SHARE PAGE  




You need to log in to post comments