Guitar Tabs, Chords and Lyrics
Update 25:10. 13:00. Site is back up running again. Songbooks are recovered. Woring on getting search back up..


forsaken  DEATHGAZE

Forsaken
By Deathgaze
From AWAKE-evoke the urge-
Tempo: Moderate=190
Tuning: Drop-A on 7-String (AEADGBE)
Q Q E Q E Q E Q E Q Q Q E Q E
 
 E||-----------------------|-----------------------|-----------------------|
 B||-----------------------|-----------------------|-----------------------|
 G||-----------------------|-----------------------|-----------------------|
 D||-------3-------3-------|--3-------3-------6----|-------3-------3-------|
 A||--1---------1-------1--|-------1-------1-------|--1---------1-------1--|
 E||-----------------------|-----------------------|-----------------------|
 A||-----------------------|-----------------------|-----------------------|

Q E Q E Q Q Q E Q E Q E Q E Q
 
 -----------------------|-----------------------|-----------------------|
 -----------------------|-----------------------|-----------------------|
 -----------------------|-----------------------|-----------------------|
 --3-------3-------6----|-------3-------3-------|--3-------3-------6----|
 -------1-------1-------|--1---------1-------1--|-------1-------1-------|
 -----------------------|-----------------------|-----------------------|
 -----------------------|-----------------------|-----------------------|

Q Q E Q E Q E Q E Q Q Q E Q E
 
 -----------------------|-----------------------|-----------------------|
 -----------------------|-----------------------|-----------------------|
 -----------------------|-----------------------|-----------------------|
 -------3-------3-------|--3-------3-------6----|-------3-------3-------|
 --1---------1-------1--|-------1-------1-------|--1---------1-------1--|
 -----------------------|-----------------------|-----------------------|
 -----------------------|-----------------------|-----------------------|

Q E Q E Q Q Q E Q E Q E Q E Q
 
 -----------------------|-----------------------|-----------------------|
 -----------------------|-----------------------|-----------------------|
 -----------------------|-----------------------|-----------------------|
 --3-------3-------6----|-------3-------3-------|--3-------3-------6----|
 -------1-------1-------|--1---------1-------1--|-------1-------1-------|
 -----------------------|-----------------------|-----------------------|
 -----------------------|-----------------------|-----------------------|

Q Q E Q E Q E Q E Q Q Q E Q E
 
 -----------------------|-----------------------|-----------------------|
 -----------------------|-----------------------|-----------------------|
 -----------------------|-----------------------|-----------------------|
 -------3-------3-------|--3-------3-------6----|-------3-------3-------|
 --1---------1-------1--|-------1-------1-------|--1---------1-------1--|
 -----------------------|-----------------------|-----------------------|
 -----------------------|-----------------------|-----------------------|

Q E Q E Q Q Q E Q E Q E Q E Q
 
 -----------------------|-----------------------|-----------------------|
 -----------------------|-----------------------|-----------------------|
 -----------------------|-----------------------|-----------------------|
 --3-------3-------6----|-------3-------3-------|--3-------3-------6----|
 -------1-------1-------|--1---------1-------1--|-------1-------1-------|
 -----------------------|-----------------------|-----------------------|
 -----------------------|-----------------------|-----------------------|

Q Q E Q E Q E Q E Q Q Q E Q E
 
 -----------------------|-----------------------|-----------------------|
 -----------------------|-----------------------|-----------------------|
 -----------------------|-----------------------|-----------------------|
 -------3-------3-------|--3-------3-------6----|-------3-------3-------|
 --1---------1-------1--|-------1-------1-------|--1---------1-------1--|
 -----------------------|-----------------------|-----------------------|
 -----------------------|-----------------------|-----------------------|

Q E Q E Q Q Q E Q E Q E Q E E E
 
 -----------------------|-----------------------|------------------------|
 -----------------------|-----------------------|------------------------|
 -----------------------|-----------------------|------------------------|
 --3-------3-------6----|-------3-------3-------|--3---------------------|
 -------1-------1-------|--1---------1-------1--|-------1--L----5--4--3--|
 -----------------------|-----------------------|---------------5--4--3--|
 -----------------------|-----------------------|---------------5--4--3--|

Q Q E E E E E E E E E E E E Q Q E E E E
 
 ------------------------|--------------------------|------------------------|
 ------------------------|--------------------------|------------------------|
 ------------------------|--------------------------|------------------------|
 ------------------------|--------------------------|------------------------|
 --1----0-------0--1--0--|--1--0-----0-----0--1--0--|--1----0-------0--1--0--|
 --1----0-------0--1--0--|--1--0-----0-----0--1--0--|--1----0-------0--1--0--|
 --1----0-------0--1--0--|--1--0-----0-----0--1--0--|--1----0-------0--1--0--|

E E E E E E E E Q Q E E E E E E E E E E E E
 
 --------------------------|------------------------|--------------------------|
 --------------------------|------------------------|--------------------------|
 --------------------------|------------------------|--------------------------|
 --2--2-----3--3-----5--5--|------------------------|--------------------------|
 --2--2-----3--3-----5--5--|--1----0-------0--1--0--|--1--0-----0-----0--1--0--|
 --0--0-----1--1-----3--3--|--1----0-------0--1--0--|--1--0-----0-----0--1--0--|
 --------------------------|--1----0-------0--1--0--|--1--0-----0-----0--1--0--|

Q Q E E E E E E E E E E E E Q Q E E E E
 
 ------------------------|--------------------------|------------------------|
 ------------------------|--------------------------|------------------------|
 ------------------------|--------------------------|------------------------|
 ------------------------|--2--2-----3--3-----5--5--|------------------------|
 --1----0-------0--1--0--|--2--2-----3--3-----5--5--|--1----0-------0--1--0--|
 --1----0-------0--1--0--|--0--0-----1--1-----3--3--|--1----0-------0--1--0--|
 --1----0-------0--1--0--|--------------------------|--1----0-------0--1--0--|

E E E E E E E E Q Q E E E E E E E E E E E E
 
 --------------------------|------------------------|--------------------------|
 --------------------------|------------------------|--------------------------|
 --------------------------|------------------------|--------------------------|
 --------------------------|------------------------|--2--2-----3--3-----5--5--|
 --1--0-----0-----0--1--0--|--1----0-------0--1--0--|--2--2-----3--3-----5--5--|
 --1--0-----0-----0--1--0--|--1----0-------0--1--0--|--0--0-----1--1-----3--3--|
 --1--0-----0-----0--1--0--|--1----0-------0--1--0--|--------------------------|

Q Q E E E E E E E E E E E E Q Q E E E E
 
 ------------------------|--------------------------|------------------------|
 ------------------------|--------------------------|------------------------|
 ------------------------|--------------------------|------------------------|
 ------------------------|--------------------------|------------------------|
 --1----0-------0--1--0--|--1--0-----0-----0--1--0--|--1----0-------0--1--0--|
 --1----0-------0--1--0--|--1--0-----0-----0--1--0--|--1----0-------0--1--0--|
 --1----0-------0--1--0--|--1--0-----0-----0--1--0--|--1----0-------0--1--0--|

PM PM PM PM PM PM PM
Q. Q. Q E E Q E Q. E E Q E E Q
 
 ---------------------|-----------------------|------------------------|
 ---------------------|-----------------------|------------------------|
 ---------------------|-----------------------|------------------------|
 ---------------------|-----------------------|------------------------|
 --3------3------3----|-----------------------|------------------------|
 --3------3------3----|--0--0-------0---------|--0--0-------0--0-------|
 --3------3------3----|--0--0-------0---------|--0--0-------0--0-------|

PM PM PM PM PM PM PM PM PM
E E E E Q. S S E E E H E E E Q E Q.
 
 ---------------------------|-----------------------|-----------------------|
 ---------------------------|-----------------------|-----------------------|
 ---------------------------|-----------------------|-----------------------|
 ---------------------------|-----------------------|-----------------------|
 ---------------------------|-----------------------|-----------------------|
 -----0-----0---------0--0--|--0-----0--------------|--0--0-------0---------|
 -----0-----0---------0--0--|--0-----0--------------|--0--0-------0---------|

PM PM PM PM PM PM PM PM PM PM PM PM PM
E E Q E E Q E E E E Q. S S E E E Q E E E
 
 ------------------------|---------------------------|-------------------------|
 ------------------------|---------------------------|-------------------------|
 ------------------------|---------------------------|-------------------------|
 ------------------------|---------------------------|-------------------------|
 ------------------------|---------------------------|-------------------------|
 --0--0-------0--0-------|-----0-----0---------0--0--|--0-----0-------5--4--3--|
 --0--0-------0--0-------|-----0-----0---------0--0--|--0-----0-------5--4--3--|

PM PM PM
Q E E E E Q W E E Q E Q.
 
 ------------------------|-------------------|-----------------------|
 ------------------------|-------------------|-----------------------|
 ------------------------|-------------------|-----------------------|
 --3----3--3--3--3--3----|--L----------------|-----------------------|
 --3----3--3--3--3--3----|--L----------------|-----------------------|
 --1----1--1--1--1--1----|--L----------------|--0--0-------0---------|
 ------------------------|-------------------|--0--0-------0---------|

PM PM PM PM PM PM PM PM PM PM
E E Q E E Q E E E E Q. S S E E E H E
 
 ------------------------|---------------------------|-----------------------|
 ------------------------|---------------------------|-----------------------|
 ------------------------|---------------------------|-----------------------|
 ------------------------|---------------------------|-----------------------|
 ------------------------|---------------------------|-----------------------|
 --0--0-------0--0-------|-----0-----0---------0--0--|--0-----0--------------|
 --0--0-------0--0-------|-----0-----0---------0--0--|--0-----0--------------|

PM PM PM PM PM PM PM PM PM PM PM
E E Q E Q. E E Q E E Q E E E E Q. S S
 
 -----------------------|------------------------|---------------------------|
 -----------------------|------------------------|---------------------------|
 -----------------------|------------------------|---------------------------|
 -----------------------|------------------------|---------------------------|
 -----------------------|------------------------|---------------------------|
 --0--0-------0---------|--0--0-------0--0-------|-----0-----0---------0--0--|
 --0--0-------0---------|--0--0-------0--0-------|-----0-----0---------0--0--|

PM PM PM PM PM
E E E Q E E E Q E E E E Q W
 
 -------------------------|------------------------|-------------------|
 -------------------------|------------------------|-------------------|
 -------------------------|------------------------|-------------------|
 -------------------------|--3----3--3--3--3--3----|--L----------------|
 -------------------------|--3----3--3--3--3--3----|--L----------------|
 --0-----0-------5--4--3--|--1----1--1--1--1--1----|--L----------------|
 --0-----0-------5--4--3--|------------------------|-------------------|

Q E E Q E E E E Q E E E E Q E E Q E E
 
 ------------------------|-------------------------|------------------------|
 ------------------------|-------------------------|------------------------|
 ------------------------|-------------------------|------------------------|
 ------------------------|-------------------------|------------------------|
 --0----0--0--0----0--0--|--0--0--0----0--0--0--0--|--8----8--8--8----8--8--|
 --0----0--0--0----0--0--|--0--0--0----0--0--0--0--|--8----8--8--8----8--8--|
 --0----0--0--0----0--0--|--0--0--0----0--0--0--0--|--8----8--8--8----8--8--|

E E Q E E E E Q E E Q E E E E Q E E E E
 
 -------------------------|------------------------|-------------------------|
 -------------------------|------------------------|-------------------------|
 -------------------------|------------------------|-------------------------|
 -------------------------|------------------------|-------------------------|
 --8--8--8----8--8--8--8--|--3----3--3--3----3--3--|--3--3--3----3--3--3--3--|
 --8--8--8----8--8--8--8--|--3----3--3--3----3--3--|--3--3--3----3--3--3--3--|
 --8--8--8----8--8--8--8--|--3----3--3--3----3--3--|--3--3--3----3--3--3--3--|

Q E E Q E E Q E Q. Q Q E E Q E E
 
 ------------------------|------------------------|------------------------|
 ------------------------|------------------------|------------------------|
 ------------------------|------------------------|------------------------|
 ------------------------|------------------------|------------------------|
 --7----7--7--7----7--7--|--7-------\4------\3----|--0----0--0--0----0--0--|
 --7----7--7--7----7--7--|--7-------\4------\3----|--0----0--0--0----0--0--|
 --7----7--7--7----7--7--|--7-------\4------\3----|--0----0--0--0----0--0--|

E E Q E E E E Q E E Q E E E E Q E E E E
 
 -------------------------|------------------------|-------------------------|
 -------------------------|------------------------|-------------------------|
 -------------------------|------------------------|-------------------------|
 -------------------------|------------------------|-------------------------|
 --0--0--0----0--0--0--0--|--8----8--8--8----8--8--|--8--8--8----8--8--8--8--|
 --0--0--0----0--0--0--0--|--8----8--8--8----8--8--|--8--8--8----8--8--8--8--|
 --0--0--0----0--0--0--0--|--8----8--8--8----8--8--|--8--8--8----8--8--8--8--|

Q E E Q E E E E Q E E E E Q E E Q E E
 
 ------------------------|-------------------------|------------------------|
 ------------------------|-------------------------|------------------------|
 ------------------------|-------------------------|------------------------|
 ------------------------|-------------------------|------------------------|
 --3----3--3--3----3--3--|--3--3--3----3--3--3--3--|--7----7--7--7----7--7--|
 --3----3--3--3----3--3--|--3--3--3----3--3--3--3--|--7----7--7--7----7--7--|
 --3----3--3--3----3--3--|--3--3--3----3--3--3--3--|--7----7--7--7----7--7--|

Q E Q. Q Q Q E E E E E E E E E E E E
 
 ------------------------|------------------------|--------------------------|
 ------------------------|------------------------|--------------------------|
 ------------------------|------------------------|--------------------------|
 ------------------------|------------------------|--------------------------|
 --7-------\4------\3----|--1----0-------0--1--0--|--1--0-----0-----0--1--0--|
 --7-------\4------\3----|--1----0-------0--1--0--|--1--0-----0-----0--1--0--|
 --7-------\4------\3----|--1----0-------0--1--0--|--1--0-----0-----0--1--0--|

Q Q E E E E E E E E E E E E Q Q E E E E
 
 ------------------------|--------------------------|------------------------|
 ------------------------|--------------------------|------------------------|
 ------------------------|--------------------------|------------------------|
 ------------------------|--2--2-----3--3-----5--5--|------------------------|
 --1----0-------0--1--0--|--2--2-----3--3-----5--5--|--1----0-------0--1--0--|
 --1----0-------0--1--0--|--0--0-----1--1-----3--3--|--1----0-------0--1--0--|
 --1----0-------0--1--0--|--------------------------|--1----0-------0--1--0--|

E E E E E E E E Q Q E E E E Q. Q. Q
 
 --------------------------|------------------------|---------------------|
 --------------------------|------------------------|---------------------|
 --------------------------|------------------------|---------------------|
 --------------------------|------------------------|---------------------|
 --1--0-----0-----0--1--0--|--1----0-------0--1--0--|--3------3------3----|
 --1--0-----0-----0--1--0--|--1----0-------0--1--0--|--3------3------3----|
 --1--0-----0-----0--1--0--|--1----0-------0--1--0--|--3------3------3----|

PM PM PM PM PM PM PM PM PM PM PM
E E Q E Q. E E Q E E Q E E E E Q. S S
 
 -----------------------|------------------------|---------------------------|
 -----------------------|------------------------|---------------------------|
 -----------------------|------------------------|---------------------------|
 -----------------------|------------------------|---------------------------|
 -----------------------|------------------------|---------------------------|
 --0--0-------0---------|--0--0-------0--0-------|-----0-----0---------0--0--|
 --0--0-------0---------|--0--0-------0--0-------|-----0-----0---------0--0--|

PM PM PM PM PM PM PM PM PM
E E E H E E E Q E Q. E E Q E E Q
 
 -----------------------|-----------------------|------------------------|
 -----------------------|-----------------------|------------------------|
 -----------------------|-----------------------|------------------------|
 -----------------------|-----------------------|------------------------|
 -----------------------|-----------------------|------------------------|
 --0-----0--------------|--0--0-------0---------|--0--0-------0--0-------|
 --0-----0--------------|--0--0-------0---------|--0--0-------0--0-------|

PM PM PM PM PM PM PM PM PM
E E E E Q. S S E E E Q E E E Q E E E E Q
 
 ---------------------------|-------------------------|------------------------|
 ---------------------------|-------------------------|------------------------|
 ---------------------------|-------------------------|------------------------|
 ---------------------------|-------------------------|--3----3--3--3--3--3----|
 ---------------------------|-------------------------|--3----3--3--3--3--3----|
 -----0-----0---------0--0--|--0-----0-------5--4--3--|--1----1--1--1--1--1----|
 -----0-----0---------0--0--|--0-----0-------5--4--3--|------------------------|

W E E Q E Q. E E Q E E Q
 
 -------------------|-----------------------|------------------------|
 -------------------|-----------------------|------------------------|
 -------------------|-----------------------|------------------------|
 --L----------------|-----------------------|------------------------|
 --L----------------|-----------------------|------------------------|
 --L----------------|--0--0-------0---------|--0--0-------0--0-------|
 -------------------|--0--0-------0---------|--0--0-------0--0-------|

E E E E Q. S S E E E H E E E Q E Q.
 
 -------------------------|-----------------------|-----------------------|
 -------------------------|-----------------------|-----------------------|
 -------------------------|-----------------------|-----------------------|
 -------------------------|-----------------------|-----------------------|
 -------------------------|-----------------------|-----------------------|
 -----0-----0---------0-0-|--0-----0--------------|--0--0-------0---------|
 -----0-----0---------0-0-|--0-----0--------------|--0--0-------0---------|

PM PM PM
E E Q E E Q E E E E Q. S S E E E Q E E E
 
 ------------------------|-------------------------|-------------------------|
 ------------------------|-------------------------|-------------------------|
 ------------------------|-------------------------|-------------------------|
 ------------------------|-------------------------|-------------------------|
 ------------------------|-------------------------|-------------------------|
 --0--0-------0--0-------|-----0-----0---------0-0-|--0-----0-------5--4--3--|
 --0--0-------0--0-------|-----0-----0---------0-0-|--0-----0-------5--4--3--|

Q E E E E Q W Q E E Q E E
 
 ------------------------|-------------------|------------------------|
 ------------------------|-------------------|------------------------|
 ------------------------|-------------------|------------------------|
 --3----3--3--3--3--3----|--L----------------|------------------------|
 --3----3--3--3--3--3----|--L----------------|--0----0--0--0----0--0--|
 --1----1--1--1--1--1----|--L----------------|--0----0--0--0----0--0--|
 ------------------------|-------------------|--0----0--0--0----0--0--|

E E Q E E E E Q E E Q E E E E Q E E E E
 
 -------------------------|------------------------|-------------------------|
 -------------------------|------------------------|-------------------------|
 -------------------------|------------------------|-------------------------|
 -------------------------|------------------------|-------------------------|
 --0--0--0----0--0--0--0--|--8----8--8--8----8--8--|--8--8--8----8--8--8--8--|
 --0--0--0----0--0--0--0--|--8----8--8--8----8--8--|--8--8--8----8--8--8--8--|
 --0--0--0----0--0--0--0--|--8----8--8--8----8--8--|--8--8--8----8--8--8--8--|

Q E E Q E E E E Q E E E E Q E E Q E E
 
 ------------------------|-------------------------|------------------------|
 ------------------------|-------------------------|------------------------|
 ------------------------|-------------------------|------------------------|
 ------------------------|-------------------------|------------------------|
 --3----3--3--3----3--3--|--3--3--3----3--3--3--3--|--7----7--7--7----7--7--|
 --3----3--3--3----3--3--|--3--3--3----3--3--3--3--|--7----7--7--7----7--7--|
 --3----3--3--3----3--3--|--3--3--3----3--3--3--3--|--7----7--7--7----7--7--|

Q E Q. Q Q E E Q E E E E Q E E E E
 
 ------------------------|------------------------|-------------------------|
 ------------------------|------------------------|-------------------------|
 ------------------------|------------------------|-------------------------|
 ------------------------|------------------------|-------------------------|
 --7-------\4------\3----|--0----0--0--0----0--0--|--0--0--0----0--0--0--0--|
 --7-------\4------\3----|--0----0--0--0----0--0--|--0--0--0----0--0--0--0--|
 --7-------\4------\3----|--0----0--0--0----0--0--|--0--0--0----0--0--0--0--|

Q E E Q E E E E Q E E E E Q E E Q E E
 
 ------------------------|-------------------------|------------------------|
 ------------------------|-------------------------|------------------------|
 ------------------------|-------------------------|------------------------|
 ------------------------|-------------------------|------------------------|
 --8----8--8--8----8--8--|--8--8--8----8--8--8--8--|--3----3--3--3----3--3--|
 --8----8--8--8----8--8--|--8--8--8----8--8--8--8--|--3----3--3--3----3--3--|
 --8----8--8--8----8--8--|--8--8--8----8--8--8--8--|--3----3--3--3----3--3--|

E E Q E E E E Q E E Q E E
 
 -------------------------|------------------------------|
 -------------------------|------------------------------|
 -------------------------|------------------------------|
 -------------------------|------------------------------|
 --3--3--3----3--3--3--3--|--10----10--10--10----10--10--|
 --3--3--3----3--3--3--3--|--10----10--10--10----10--10--|
 --3--3--3----3--3--3--3--|--10----10--10--10----10--10--|

E E Q E E E E Q Q Q Q Q Q Q Q
 
 --------------------------------|----------------------|----------------------|
 --------------------------------|----------------------|----------------------|
 --------------------------------|----------------------|----------------------|
 --------------------------------|----------------------|----------------------|
 --10--10--10----10--10--10--10--|--8----8----8----8----|--8----8----8----8----|
 --10--10--10----10--10--10--10--|--8----8----8----8----|--8----8----8----8----|
 --10--10--10----10--10--10--10--|--8----8----8----8----|--8----8----8----8----|

Q Q Q Q Q Q Q Q Q Q E E E E
 
 --------------------------|--------------------------|------------------------|
 --------------------------|--------------------------|------------------------|
 --------------------------|--------------------------|------------------------|
 --------------------------|--------------------------|------------------------|
 --10----10----10----10----|--10----10----10----10----|--1----0-------0--1--0--|
 --10----10----10----10----|--10----10----10----10----|--1----0-------0--1--0--|
 --10----10----10----10----|--10----10----10----10----|--1----0-------0--1--0--|

E E E E E E E E Q Q E E E E E E E E E E E E
 
 --------------------------|------------------------|--------------------------|
 --------------------------|------------------------|--------------------------|
 --------------------------|------------------------|--------------------------|
 --------------------------|------------------------|--2--2-----3--3-----5--5--|
 --1--0-----0-----0--1--0--|--1----0-------0--1--0--|--2--2-----3--3-----5--5--|
 --1--0-----0-----0--1--0--|--1----0-------0--1--0--|--0--0-----1--1-----3--3--|
 --1--0-----0-----0--1--0--|--1----0-------0--1--0--|--------------------------|

Q Q E E E E E E E E E E E E Q Q E E E E
 
 ------------------------|--------------------------|------------------------|
 ------------------------|--------------------------|------------------------|
 ------------------------|--------------------------|------------------------|
 ------------------------|--------------------------|------------------------|
 --1----0-------0--1--0--|--1--0-----0-----0--1--0--|--1----0-------0--1--0--|
 --1----0-------0--1--0--|--1--0-----0-----0--1--0--|--1----0-------0--1--0--|
 --1----0-------0--1--0--|--1--0-----0-----0--1--0--|--1----0-------0--1--0--|

E E E E E E E E Q Q E E E E E E E E E E E E
 
 --------------------------|------------------------|--------------------------|
 --------------------------|------------------------|--------------------------|
 --------------------------|------------------------|--------------------------|
 --2--2-----3--3-----5--5--|------------------------|--------------------------|
 --2--2-----3--3-----5--5--|--1----0-------0--1--0--|--1--0-----0-----0--1--0--|
 --0--0-----1--1-----3--3--|--1----0-------0--1--0--|--1--0-----0-----0--1--0--|
 --------------------------|--1----0-------0--1--0--|--1--0-----0-----0--1--0--|

Q Q E E E E E E E E E E E E Q Q E E E E
 
 ------------------------|--------------------------|------------------------|
 ------------------------|--------------------------|------------------------|
 ------------------------|--------------------------|------------------------|
 ------------------------|--2--2-----3--3-----5--5--|------------------------|
 --1----0-------0--1--0--|--2--2-----3--3-----5--5--|--1----0-------0--1--0--|
 --1----0-------0--1--0--|--0--0-----1--1-----3--3--|--1----0-------0--1--0--|
 --1----0-------0--1--0--|--------------------------|--1----0-------0--1--0--|

E E E E E E E E Q Q E E E E Q. Q. Q
 
 --------------------------|------------------------|---------------------|
 --------------------------|------------------------|---------------------|
 --------------------------|------------------------|---------------------|
 --------------------------|------------------------|---------------------|
 --1--0-----0-----0--1--0--|--1----0-------0--1--0--|--3------3------3----|
 --1--0-----0-----0--1--0--|--1----0-------0--1--0--|--3------3------3----|
 --1--0-----0-----0--1--0--|--1----0-------0--1--0--|--3------3------3----|

S S S S S S S S S S S S S S S S
 
 --------------------------------------------------|
 --------------------------------------------------|
 --10-10-10-10-10-10-10-10-10-10-10-10-10-10-10-10-|
 --------------------------------------------------|
 --------------------------------------------------|
 --------------------------------------------------|
 --------------------------------------------------|

S S S S S S S S S S S S S S S S
 
 --------------------------------------------------|
 --------------------------------------------------|
 --10-10-10-10-10-10-10-10-10-10-10-10-10-10-10-10-|
 --------------------------------------------------|
 --------------------------------------------------|
 --------------------------------------------------|
 --------------------------------------------------|

S S S S S S S S S S S S S S S S
 
 ----------------------------------|
 ----------------------------------|
 --9-9-9-9-9-9-9-9-9-9-9-9-9-9-9-9-|
 ----------------------------------|
 ----------------------------------|
 ----------------------------------|
 ----------------------------------|

S S S S S S S S S S S S S S S S
 
 --------------------------------------------------|
 --------------------------------------------------|
 --12-12-12-12-12-12-12-12-12-12-12-12-12-12-12-12-|
 --------------------------------------------------|
 --------------------------------------------------|
 --------------------------------------------------|
 --------------------------------------------------|

S S S S S S S S S S S S S S S S S S S S S S S S S S S S S S S S
 
 ----------------------------------------|----------------------------------|
 ----------------------------------------|----------------------------------|
 --10-10-10-10-10-10-9-9-9-9-9-9-7-7-7-7-|--5-5-5-5-5-5-5-5-4-4-4-4-5-5-5-5-|
 ----------------------------------------|----------------------------------|
 ----------------------------------------|----------------------------------|
 ----------------------------------------|----------------------------------|
 ----------------------------------------|----------------------------------|

S S S S S S S S S S S S S S S S S S S S S S S S S S S S Q
 
 ----------------------------------|-------------------------------|
 ----------------------------------|-------------------------------|
 --4-4-4-4-4-4-4-4-4-4-4-4-4-4-4-4-|--5-5-5-5-5-5-5-5-5-5-5-5-7----|
 ----------------------------------|-------------------------------|
 ----------------------------------|-------------------------------|
 ----------------------------------|-------------------------------|
 ----------------------------------|-------------------------------|

S S S S S S S S S S S S S S S S
 
 --------------------------------------------------|
 --------------------------------------------------|
 --10-10-10-10-10-10-10-10-10-10-10-10-10-10-10-10-|
 --------------------------------------------------|
 --------------------------------------------------|
 --------------------------------------------------|
 --------------------------------------------------|

S S S S S S S S S S S S S S S S
 
 --------------------------------------------------|
 --------------------------------------------------|
 --10-10-10-10-10-10-10-10-10-10-10-10-10-10-10-10-|
 --------------------------------------------------|
 --------------------------------------------------|
 --------------------------------------------------|
 --------------------------------------------------|

S S S S S S S S S S S S S S S S
 
 ----------------------------------|
 ----------------------------------|
 --9-9-9-9-9-9-9-9-9-9-9-9-9-9-9-9-|
 ----------------------------------|
 ----------------------------------|
 ----------------------------------|
 ----------------------------------|

S S S S S S S S S S S S S S S S
 
 --------------------------------------------------|
 --------------------------------------------------|
 --12-12-12-12-12-12-12-12-12-12-12-12-12-12-12-12-|
 --------------------------------------------------|
 --------------------------------------------------|
 --------------------------------------------------|
 --------------------------------------------------|

S S S S S S S S S S S S S S S S
 
 --------------------------------------------|
 --------------------------------------------|
 --10-10-10-10-10-10-9-9-9-9-9-9-10-10-10-10-|
 --------------------------------------------|
 --------------------------------------------|
 --------------------------------------------|
 --------------------------------------------|

S S S S S S S S S S S S S S S S
 
 --------------------------------------------------|
 --------------------------------------------------|
 --10-10-10-10-10-10-10-10-10-10-10-10-10-10-10-10-|
 --------------------------------------------------|
 --------------------------------------------------|
 --------------------------------------------------|
 --------------------------------------------------|

S S S S Q H Q Q Q Q
 
 ------------------------------|--------------------15----|
 ------------------------------|--------------------------|
 --10-10-10-10------/15--------|--14----15----14----------|
 ------------------------------|--------------------------|
 ------------------------------|--------------------------|
 ------------------------------|--------------------------|
 ------------------------------|--------------------------|

Q Q Q Q W H H
 
 --L----------------15----|---L~----------------|--L-------------------|
 --L----------------------|---L-----------------|----------------------|
 -------15----14----------|---------------------|-----------/14--------|
 -------------------------|---------------------|----------------------|
 -------------------------|---------------------|----------------------|
 -------------------------|---------------------|----------------------|
 -------------------------|---------------------|----------------------|

H E E Q Q Q H W
 
 --------------------15----|--------------15--------|--15br----------------|
 --------------------------|------------------------|----------------------|
 --15--------17--14--------|--15----14--------------|----------------------|
 --------------------------|------------------------|----------------------|
 --------------------------|------------------------|----------------------|
 --------------------------|------------------------|----------------------|
 --------------------------|------------------------|----------------------|
 |---3---| 

H. Q Q H E E E H. E E
 
 --L~-------------------|------------------------------|--15--------------------|
 -----------------------|------------------------------|------------------------|
 ----------------/14----|---L----15--------14--15--14--|----------------14--15--|
 -----------------------|------------------------------|------------------------|
 -----------------------|------------------------------|------------------------|
 -----------------------|------------------------------|------------------------|
 -----------------------|------------------------------|------------------------|

[E] [E] [E] [E] [E] [E] [E] [E] [E] [E] [E] [E] [E] [E] [E] [E]  
 
 ----------------------------------|--17--15--------------------------|
 --------------15--16--15----------|----------18--17--15------15--17--|
 --17--15--17--------------17--15--|----------------------17----------|
 ----------------------------------|----------------------------------|
 ----------------------------------|----------------------------------|
 ----------------------------------|----------------------------------|
 ----------------------------------|----------------------------------|

E E E E E E E E H. Q
 
 ------------------15--------------|--/15------------/13----|
 --18--17--15----------18--17--15--|------------------------|
 --------------17------------------|------------------------|
 ----------------------------------|------------------------|
 ----------------------------------|------------------------|
 ----------------------------------|------------------------|
 ----------------------------------|------------------------|

H. Q H. Q H H
 
 ---L-------------------|-----------------------|----------------------|
 -----------------------|-----------------------|----------------------|
 ----------------/15----|---L------------/14----|---L\-----------------|
 -----------------------|-----------------------|----------------------|
 -----------------------|-----------------------|----------------------|
 -----------------------|-----------------------|----------------------|
 -----------------------|-----------------------|----------------------|

Q E E Q E E E E Q E E E E Q E E Q E E
 
 ------------------------|-------------------------|------------------------|
 ------------------------|-------------------------|------------------------|
 ------------------------|-------------------------|------------------------|
 ------------------------|-------------------------|------------------------|
 --0----0--0--0----0--0--|--0--0--0----0--0--0--0--|--8----8--8--8----8--8--|
 --0----0--0--0----0--0--|--0--0--0----0--0--0--0--|--8----8--8--8----8--8--|
 --0----0--0--0----0--0--|--0--0--0----0--0--0--0--|--8----8--8--8----8--8--|

E E Q E E E E Q E E Q E E E E Q E E E E
 
 -------------------------|------------------------|-------------------------|
 -------------------------|------------------------|-------------------------|
 -------------------------|------------------------|-------------------------|
 -------------------------|------------------------|-------------------------|
 --8--8--8----8--8--8--8--|--3----3--3--3----3--3--|--3--3--3----3--3--3--3--|
 --8--8--8----8--8--8--8--|--3----3--3--3----3--3--|--3--3--3----3--3--3--3--|
 --8--8--8----8--8--8--8--|--3----3--3--3----3--3--|--3--3--3----3--3--3--3--|

Q E E Q E E Q E Q. Q Q E E Q E E
 
 ------------------------|------------------------|------------------------|
 ------------------------|------------------------|------------------------|
 ------------------------|------------------------|------------------------|
 ------------------------|------------------------|------------------------|
 --7----7--7--7----7--7--|--7-------\4------\3----|--0----0--0--0----0--0--|
 --7----7--7--7----7--7--|--7-------\4------\3----|--0----0--0--0----0--0--|
 --7----7--7--7----7--7--|--7-------\4------\3----|--0----0--0--0----0--0--|

E E Q E E E E Q E E Q E E E E Q E E E E
 
 -------------------------|------------------------|-------------------------|
 -------------------------|------------------------|-------------------------|
 -------------------------|------------------------|-------------------------|
 -------------------------|------------------------|-------------------------|
 --0--0--0----0--0--0--0--|--8----8--8--8----8--8--|--8--8--8----8--8--8--8--|
 --0--0--0----0--0--0--0--|--8----8--8--8----8--8--|--8--8--8----8--8--8--8--|
 --0--0--0----0--0--0--0--|--8----8--8--8----8--8--|--8--8--8----8--8--8--8--|

Q E E Q E E E E Q E E E E Q E E Q E E
 
 ------------------------|-------------------------|------------------------|
 ------------------------|-------------------------|------------------------|
 ------------------------|-------------------------|------------------------|
 ------------------------|-------------------------|------------------------|
 --3----3--3--3----3--3--|--3--3--3----3--3--3--3--|--7----7--7--7----7--7--|
 --3----3--3--3----3--3--|--3--3--3----3--3--3--3--|--7----7--7--7----7--7--|
 --3----3--3--3----3--3--|--3--3--3----3--3--3--3--|--7----7--7--7----7--7--|

Q E Q. Q Q E E Q E E E E Q E E E E
 
 ------------------------|------------------------|-------------------------|
 ------------------------|------------------------|-------------------------|
 ------------------------|------------------------|-------------------------|
 ------------------------|------------------------|-------------------------|
 --7-------\4------\3----|--0----0--0--0----0--0--|--0--0--0----0--0--0--0--|
 --7-------\4------\3----|--0----0--0--0----0--0--|--0--0--0----0--0--0--0--|
 --7-------\4------\3----|--0----0--0--0----0--0--|--0--0--0----0--0--0--0--|

Q E E Q E E E E Q E E E E Q E E Q E E
 
 ------------------------|-------------------------|------------------------|
 ------------------------|-------------------------|------------------------|
 ------------------------|-------------------------|------------------------|
 ------------------------|-------------------------|------------------------|
 --8----8--8--8----8--8--|--8--8--8----8--8--8--8--|--3----3--3--3----3--3--|
 --8----8--8--8----8--8--|--8--8--8----8--8--8--8--|--3----3--3--3----3--3--|
 --8----8--8--8----8--8--|--8--8--8----8--8--8--8--|--3----3--3--3----3--3--|

E E Q E E E E Q E E Q E E Q E Q. Q
 
 -------------------------|------------------------|------------------------|
 -------------------------|------------------------|------------------------|
 -------------------------|------------------------|------------------------|
 -------------------------|------------------------|------------------------|
 --3--3--3----3--3--3--3--|--7----7--7--7----7--7--|--7-------\4------\3----|
 --3--3--3----3--3--3--3--|--7----7--7--7----7--7--|--7-------\4------\3----|
 --3--3--3----3--3--3--3--|--7----7--7--7----7--7--|--7-------\4------\3----|

Q E E Q E E E E Q E E E E Q E E Q E E
 
 ------------------------|-------------------------|------------------------|
 ------------------------|-------------------------|------------------------|
 ------------------------|-------------------------|------------------------|
 ------------------------|-------------------------|------------------------|
 --0----0--0--0----0--0--|--0--0--0----0--0--0--0--|--8----8--8--8----8--8--|
 --0----0--0--0----0--0--|--0--0--0----0--0--0--0--|--8----8--8--8----8--8--|
 --0----0--0--0----0--0--|--0--0--0----0--0--0--0--|--8----8--8--8----8--8--|

E E Q E E E E Q E E Q E E E E Q E E E E
 
 -------------------------|------------------------|-------------------------|
 -------------------------|------------------------|-------------------------|
 -------------------------|------------------------|-------------------------|
 -------------------------|------------------------|-------------------------|
 --8--8--8----8--8--8--8--|--3----3--3--3----3--3--|--3--3--3----3--3--3--3--|
 --8--8--8----8--8--8--8--|--3----3--3--3----3--3--|--3--3--3----3--3--3--3--|
 --8--8--8----8--8--8--8--|--3----3--3--3----3--3--|--3--3--3----3--3--3--3--|

Q E E Q E E E E Q E E E E
 
 ------------------------------|--------------------------------|
 ------------------------------|--------------------------------|
 ------------------------------|--------------------------------|
 ------------------------------|--------------------------------|
 --10----10--10--10----10--10--|--10--10--10----10--10--10--10--|
 --10----10--10--10----10--10--|--10--10--10----10--10--10--10--|
 --10----10--10--10----10--10--|--10--10--10----10--10--10--10--|

Q Q Q Q Q Q Q Q Q Q Q Q
 
 ----------------------|----------------------|--------------------------|
 ----------------------|----------------------|--------------------------|
 ----------------------|----------------------|--------------------------|
 ----------------------|----------------------|--------------------------|
 --8----8----8----8----|--8----8----8----8----|--10----10----10----10----|
 --8----8----8----8----|--8----8----8----8----|--10----10----10----10----|
 --8----8----8----8----|--8----8----8----8----|--10----10----10----10----|

Q Q Q Q Q Q Q Q
 
 --------------------------|--------------------------|
 --------------------------|--------------------------|
 --------------------------|--------------------------|
 --------------------------|--------------------------|
 --10----10----10----10----|--12----12----12----12----|
 --10----10----10----10----|--12----12----12----12----|
 --10----10----10----10----|--12----12----12----12----|

Q Q Q Q Q Q Q Q
 
 --------------------------|--------------------------|
 --------------------------|--------------------------|
 --------------------------|--------------------------|
 --------------------------|--------------------------|
 --12----12----12----12----|--12----12----12----12----|
 --12----12----12----12----|--12----12----12----12----|
 --12----12----12----12----|--12----12----12----12----|

Q Q Q Q E E E E Q E E E E Q E E Q
 
 --------------------------|-------------------------|------------------------|
 --------------------------|-------------------------|------------------------|
 --------------------------|-------------------------|------------------------|
 --------------------------|-------------------------|------------------------|
 --12----12----12----12----|--8--8--8--8-------8--8--|--8--8-------8--8-------|
 --12----12----12----12----|--8--8--8--8-------8--8--|--8--8-------8--8-------|
 --12----12----12----12----|--8--8--8--8-------8--8--|--8--8-------8--8-------|

PM PM PM
E E E E Q E E E E Q. E E E
 
 -------------------------------|--------------------------|
 -------------------------------|--------------------------|
 -------------------------------|--------------------------|
 -------------------------------|--------------------------|
 --10--10--10--10-------10--10--|--10--10------------------|
 --10--10--10--10-------10--10--|--10--10---------5--4--3--|
 --10--10--10--10-------10--10--|--10--10---------5--4--3--|

Q Q E E E E E E E E E E E E Q Q E E E E
 
 ------------------------|--------------------------|------------------------|
 ------------------------|--------------------------|------------------------|
 ------------------------|--------------------------|------------------------|
 ------------------------|--------------------------|------------------------|
 --1----0-------0--1--0--|--1--0-----0-----0--1--0--|--1----0-------0--1--0--|
 --1----0-------0--1--0--|--1--0-----0-----0--1--0--|--1----0-------0--1--0--|
 --1----0-------0--1--0--|--1--0-----0-----0--1--0--|--1----0-------0--1--0--|

E E E E E E E E Q Q E E E E E E E E E E E E
 
 --------------------------|------------------------|--------------------------|
 --------------------------|------------------------|--------------------------|
 --------------------------|------------------------|--------------------------|
 --2--2-----3--3-----5--5--|------------------------|--------------------------|
 --2--2-----3--3-----5--5--|--1----0-------0--1--0--|--1--0-----0-----0--1--0--|
 --0--0-----1--1-----3--3--|--1----0-------0--1--0--|--1--0-----0-----0--1--0--|
 --------------------------|--1----0-------0--1--0--|--1--0-----0-----0--1--0--|

Q Q E E E E E E E E E E E E Q Q E E E E
 
 ------------------------|--------------------------|------------------------|
 ------------------------|--------------------------|------------------------|
 ------------------------|--------------------------|------------------------|
 ------------------------|--2--2-----3--3-----5--5--|------------------------|
 --1----0-------0--1--0--|--2--2-----3--3-----5--5--|--1----0-------0--1--0--|
 --1----0-------0--1--0--|--0--0-----1--1-----3--3--|--1----0-------0--1--0--|
 --1----0-------0--1--0--|--------------------------|--1----0-------0--1--0--|

E E E E E E E E Q Q E E E E E E E E E E E E
 
 --------------------------|------------------------|--------------------------|
 --------------------------|------------------------|--------------------------|
 --------------------------|------------------------|--------------------------|
 --------------------------|------------------------|--2--2-----3--3-----5--5--|
 --1--0-----0-----0--1--0--|--1----0-------0--1--0--|--2--2-----3--3-----5--5--|
 --1--0-----0-----0--1--0--|--1----0-------0--1--0--|--0--0-----1--1-----3--3--|
 --1--0-----0-----0--1--0--|--1----0-------0--1--0--|--------------------------|

Q Q E E E E E E E E E E E E Q Q E E E E
 
 ------------------------|--------------------------|------------------------|
 ------------------------|--------------------------|------------------------|
 ------------------------|--------------------------|------------------------|
 ------------------------|--------------------------|------------------------|
 --1----0-------0--1--0--|--1--0-----0-----0--1--0--|--1----0-------0--1--0--|
 --1----0-------0--1--0--|--1--0-----0-----0--1--0--|--1----0-------0--1--0--|
 --1----0-------0--1--0--|--1--0-----0-----0--1--0--|--1----0-------0--1--0--|

Q. Q. Q Q Q E Q E Q E Q E Q
 
 ---------------------|-----------------------|-----------------------|
 ---------------------|-----------------------|-----------------------|
 ---------------------|-----------------------|-----------------------|
 ---------------------|-------3-------3-------|--3-------3-------6----|
 --3------3------3----|--1---------1-------1--|-------1-------1-------|
 --3------3------3----|-----------------------|-----------------------|
 --3------3------3----|-----------------------|-----------------------|

W W<br /

Important: The song above is NOT stored on the Chordie server. The original song is hosted at www.guitaretab.com. Chordie works as a search engine and provides on-the-fly formatting. Chordie does not index songs against artists'/composers' will. To remove this song please click here.

Text color:
Chord color:
Chord grids: 
Font size:    
Page size: 

E
Rate #2 of 2 versions

Jango Player

Login - add to songbook

SHARE PAGE  




You need to log in to post comments