Guitar Tabs, Chords and Lyrics
Major upgrade!! After one year development the new version of Chordie is now online! Please give feedback.


The Queen's Rebuke / The Crossing  The Decemberists

 
 -------------------------------------------------------------------------------

THE QUEEN'S REBUKE / THE CROSSING - The Decemberists
 
 -------------------------------------------------------------------------------

Tabbed by: Barney Gale
Email: barney.gale@gmail.com
Tuning: Drop D
[1] [2] [3] [4] [5] [6] [1] [2] [3] [4] [5] [6]  
 
 E:|-----------|------------|
 B:|-----------|------------|
 G:|-----------|------------| Intro
 D:|0---0-5~~--|-0---0-7~~--| (play four times)
 A:|0---0-5~~--|-0---0-7~~--|
 D:|0---0-5~~--|-0---0-7~~--|

[D5] [F5] [D5] [G5]  
(((For the verse, play the same thing, but palm mute when you play the D5)))
I'm made of bones of the branches, the boughs, and the brow-beating light
Oh, my feet are the trunks and my head is the canopy high
And my fingers extend to the leaves and the eaves and the [F5]bright
Brightest [G5]shine, it's [F5]my shine
(((Intro riff x2)))
And he was a baby, abandoned entombed in a cradle of clay
And I was the soul that took pity and stole him away
And gave him the form of a fawn to inhabit by [F5]day
Brightest [G5]day, it's [F5]my day
(((Intro riff x4 over piddling around on guitar. I'm not tabbing this)))
(((Verse riff x2)))
And you have removed this temptation that's troubled my innocent child
To abduct and abuse and to render her rift and defiled
But the river is deep to the banks and the water is [F5]wild
But I will [G5]fly you [F5]to the far side
(((Intro riff x4, again over noodling)))
 
 E:|-------------------------|
 B:|------------6------------|
 G:|------7p5-----7~---------| Solo Pt. 1
 D:|-0--------7------3-5-3-5-| x3
 A:|-0---------------3-5-3-5-|
 D:|-0---------------3-5-3-5-|
 E:|------------------------------------8-|
 B:|----------------------------------5---|
 G:|------------5-------------5h7-5h7-----| Solo Pt. 2
 D:|-7----7p5-----7~--7-7p5---------------| x2
 A:|-7--------7-------------7-------------|
 D:|-7------------------------------------|

Then:
Solo Pt. 1 x3
Solo Pt. 2 x2
Organ solo (play power chords from pt. 1) x3
Solo Pt. 2 x2
Solo Pt. 1 x3
End on A5

Important: The song above is NOT stored on the Chordie server. The original song is hosted at www.guitaretab.com. Chordie works as a search engine and provides on-the-fly formatting. Chordie does not index songs against artists'/composers' will. To remove this song please click here.

Text color:
Chord color:
Chord grids: 
Font size:    
Page size: 

D5 F5 G5
Rate #1 of 3 versions

Login - add to songbook

SHARE PAGE  




You need to log in to post comments