Guitar Tabs, Chords and Lyrics
Server problems seems to be fixed. Chordie has been experiencing problems with songs disappearing. These issues now seems to be fixed, but still verifying the fix. If you find anything strange, please email admin@chordie.com.


You and Me  Delays

To the bitter end I have fought alone,
Now this cavalry is coming home,
 
 E |--------------5-------------------------------------------------------|
 B |-------1-3--6---6-----------------------------------------------------|
 G |--2-3-----------------------------------------------------------------|
 D |----------------------------------------------------------------------|
 A |----------------------------------------------------------------------|
 E |----------------------------------------------------------------------|

[F]Like a motorcade lost in ticker[Dm]tape
I have felt my w[A#]ay to you again[F]
On any other day there?d be a marching band[Dm]
But I stole away before they cut me do[Am]wn
[Dm]What say we [Am]go, [Dm]meet by the [Am]well?
[Dm]Don?t tell a [Am]soul, this [A#]is our time?
And we can lay [F]low tonight; no I don?t have the [Am]will to fight
My president or [Dm]his designs; you & [A#]me coulda been fine
[Am]you & me were gonna be fine?
[F] [Dm] [A#]  
[F]Cos you knew me when I was wide awa[Dm]ke
Now I sleep all day[A#], oh my mistake![F]
Oh any other day, there?d be a marching ba[Dm]nd
But I stole away before thy cut me down[Am],
[Dm]What say we [Am]go, [Dm]meet by the [Am]well?
[Dm]Don?t tell a [Am]soul, this [A#]is our time?
And we can lay [F]low tonight; no I don?t have the [Am]will to fight
My president or [Dm]his designs; you & [A#]me coulda been fine
[Am]you & me were gonna be fine?
[F]In time, inside, here comes the falling rain,
[Dm]In time, inside, [A#]here comes the pouring rain,
[F]In time, inside, here comes the falling rain,
[Dm]In time, inside, [A#]here comes the poison rain.
[A#]Ooh, oh, yeah, ooh, oh yea[Dm]h.
[A#]Ooh, oh, yeah, ooh, oh yeah yeah yeah.
And we can lay [F]low tonight; no I don?t have the [Am]will to fight
My president or [Dm]his designs; you & [A#]me coulda been fine[Am]
Oh we can lay l[F]ow tonight; and we can set [Am]the flag alight,
We?re clawing back the [A#]time, when youth was on our side,
[Dm]You & me coulda been fine, [Am]you & me were gonna be fine.
 
 E |--5---8-5---5-------5-------------------------------------------------|
 B |----6---------6-5-6---------------------------------------------------|
 G |----------------------------------------------------------------------|
 D |----------------------------------------------------------------------|
 A |----------------------------------------------------------------------|
 E |----------------------------------------------------------------------|


Important: The song above is NOT stored on the Chordie server. The original song is hosted at www.guitaretab.com. Chordie works as a search engine and provides on-the-fly formatting. Chordie does not index songs against artists'/composers' will. To remove this song please click here.

Text color:
Chord color:
Chord grids: 
Font size:    
Page size: 

A# Am Dm F
Rate #3 of 4 versions

Jango Player

Login - add to songbook

SHARE PAGE  



You need to log in to post comments