Guitar Tabs, Chords and Lyrics
Major upgrade!! After one year development the new version of Chordie is now online! Please give feedback.


My Glorious  Delirious?

Tabbed by: Jeffrey DS. Galuno 032811
Intro: Bass riff
 
 G-------------------------|----------7----|--------------|
 D-------------------------|-------5s7-----|--------------|
 A-------------------------|2s5-5-5----5p4-|-2--4444------|
 E?(-2-2-5?0h2-2?0h2h5-)2x-|---------------|--------5555--|

[F#m] [D] [C#m] [Bm] [/C#/A] 
The W[F#m]orld is shaking with the love of G[D/]od[DM7] [Bm]
Great[F#m] and glorious, let the whole earth[D/] si[DM7]ng[Bm]
[D]And all you ever do is ch[C#m]ange the old for new
[Bm]People we believe that
Chorus:
[A]God is big[E/Ab]ger than the ai[F#m]r I breathe, The world w[E]e'll leave
[A]God will save t[E/Ab]he day and all will[F#m] say My gloriou[E]s!
[F#m]Clouds are breaking, heaven's come to e[D/]art[DM7]h[Bm]
[F#m]Hearts awakening let the church bells r[D/]ing[DM7] [Bm]
[D]And all you ever do is ch[C#m]ange the old for new
[Bm]People we believe that
-- Repeat CHORUS --
My glori[D]ous! My glorio[E]us!
 
 e---17-16-------| do this riff
 B---------19-17-| as My Glorious
 G---------------| is sang

Solo:
 
 e--9-9--------12---9-12s14-14---------|
 B------10-12------------------14-12---|
 G-------------------------------------|
 D-------------------------------------|
 e------------9-----------12-|-9-12-12s14-14-12-12s16-|
 B------10-12--12-10--12-----|------------------------|
 G-9s11-------------9--------|------------------------|
 D---------------------------|------------------------|
 e---17-16-------|
 B---------19-17-|
 G---------------| 

The solo is not that accurate but this riff may do? (forgive a novice). God bless us all.

Important: The song above is NOT stored on the Chordie server. The original song is hosted at www.guitaretab.com. Chordie works as a search engine and provides on-the-fly formatting. Chordie does not index songs against artists'/composers' will. To remove this song please click here.

Text color:
Chord color:
Chord grids: 
Font size:    
Page size: 

A Bm C#m D Dm7 E E/Ab F#m
Rate #1 of 14 versions

Jango Player

Login - add to songbook

SHARE PAGE  



You need to log in to post comments