Guitar Tabs, Chords and Lyrics
Major upgrade!! After one year development the new version of Chordie is now online! Please give feedback.


Beauty Through the Eyes of a Predator   Demon Hunter

 
 C#[--------------------------------------------------------------------]
 G#[--------------------------------------------------------------------]
 E [--------------------------------------------------------------------]
 B [--------------------------------------------------------------------]
 F#[--0h3-0-0-0h5-0h3-0h3-0-0-0h5-0h3-0h3-0-0-0h5-0h3--0h3-0-0----5-4---]
 B [--0h3-0-0-0h5-0h3-0h3-0-0-0h5-0h3-0h3-0-0-0h5-0h3--0h3-0-0---3-2----]

 


 


 pre-chorus riff part 1 (All I see.......)


 (the bend is very slight, leave it off if you want)


 


 

 
 C#[---------------------------------------------------------]
 G#[---------------------------------------------------------]
 E [---------------------------------------------------------]
 B [---------------------------------------------------------]
 F#[--0-0--0-12---0-0--0-14---0-0--0-15b---0-0--0--8/7-5h7---]
 B [--0-0--0-12---0-0--0-14---0-0--0-15b---0-0--0--8/7-5h7---]

 


 


 pre-chorus riff part 2 (Your disease....)


 


 

 
 C#[-------------------------------------------------------------]
 G#[-------------------------------------------------------------]
 E [-------------------------------------------------------------]
 B [-------------------------------------------------------------]
 F#[--0-0-0-0-12---0-0-0-0-14---0-0-0-0-15b---0-0-0-0--8/7-5h7---]
 B [--0-0-0-0-12---0-0-0-0-14---0-0-0-0-15b---0-0-0-0--8/7-5h7---]

 


 x x x x x x x x x x x x x x x x


 


 chorus riff


 


 

 
 C#[-----------------------------------------------------------------]
 G#[-----------------------------------------------------------------]
 E [-----------------------------------------------------------------]
 B [-----------------------------------------------------------------]
 F#[--0--0--7--7--\1--1--8--8\7h8h10--0--0--7---7\1---1---1---1p0-1h3]
 B [--0--0--7--7--\1--1--8--8\7h8h10--0--0--7---7\1---1---1---1p0-1h3]

 


 


 pre-bridge riff


 


 

 
 C#[--------------------------------------------------]
 G#[--------------------------------------------------]
 E [--------------------------------------------------]
 B [--------------------------------------------------]
 F#[--7/12--0-----7/12--0-----7/12--0-----7/12--0-----]
 B [--7/12--0-----7/12--0-----7/12--0-----7/12--0-----]

 


 


 bridge (breakdown) riff (Peddle your faith.....)


 


 

 
 C#[------------------------------------------]
 G#[------------------------------------------]
 E [------------------------------------------]
 B [------------------------------------------]
 F#[--7/12--0-0---------7/12--0-0-------------]
 B [--7/12--0-0-3-2-1---7/12--0-0-3p0-2p0-----]

 


 


 you have to pick that 3-2-1 part because it is so fast that if you don't, it will sound


 a slide.


 But that's fine if you want to do it that way, too.


 


 go back through the chorus riff and at the end hit an open chord and let it ring through


 'I feel my lungs.......' part.


 


 Then the ending riff....


 


 

 
 C#[-------------------------------------------]
 G#[-------------14----------------------------]
 E [-------------14----------------------------]
 B [--------------x----------------------------]
 F#[--000--000---12----000--000-----3---2---1--]
 B [--000--000----0----000--000---3---2---1----]


Important: The song above is NOT stored on the Chordie server. The original song is hosted at www.guitaretab.com. Chordie works as a search engine and provides on-the-fly formatting. Chordie does not index songs against artists'/composers' will. To remove this song please click here.

This song is displayed as text-only. Transposing and tuning is only available for chordpro-songs.
Rate #2 of 6 versions

Login - add to songbook

SHARE PAGE  




You need to log in to post comments