Guitar Tabs, Chords and Lyrics
Major upgrade!! After one year development the new version of Chordie is now online! Please give feedback.


Itâ??s No Good   Depeche Mode

 
 -------6-------3-----------------|
 -8-------4-------1---------------|
 ---------------------------------|
 ---------------------------------|
 ---------------------------------|
 ---------------------------------|
 -------6-------3-----------------------------|
 -8-------4-------1------------4--------------|
 --------------------------------1-----0------|
 ---------------------------------------------|
 ---------------------------------------------|
 ---------------------------------------------|


Important: The song above is NOT stored on the Chordie server. The original song is hosted at www.guitaretab.com. Chordie works as a search engine and provides on-the-fly formatting. Chordie does not index songs against artists'/composers' will. To remove this song please click here.

This song is displayed as text-only. Transposing and tuning is only available for chordpro-songs.
Rate #2 of 2 versions

Jango Player

Login - add to songbook

SHARE PAGE  



You need to log in to post comments