Guitar Tabs, Chords and Lyrics
Major upgrade!! After one year development the new version of Chordie is now online! Please give feedback.


Steh auf, wenn du am Boden bist  Die Toten Hosen

[Intro] 
[E] [Esus] [E] [B]  
 
 E |----------------:|
 H |----------------:|
 G |--1----2-1------:|
 D |--2----2-2----4-:|
 A |--2----2-2----2-:|
 E |----------------:|

[1.Stropbe] 
 
 E |-----------------------|
 H |-----------------------|
 G |--1----2----1----2-----|
 D |--2----2----2----2-----|
 A |--2----0----2----0--4--|
 E |--------------------2--|
 E |-------------------------|
 H |-------------------------|
 G |--4---------2----4----1--|
 D |--4---------2----4----2--|
 A |--2----4----0----2----2--|
 E |-------2-----------------|

Wenn d[E]u mit dir am E[A]nde bist
Und d[E]u einfach nicht w[A]eiter w[F#m]illst
Weil [B]du dich nur noch fr[F#m]agst warum und w[A]ozu
Und was dein L[B]eben noch bringen s[E]oll
Halt d[E]urch, auch wenn du [A]allein bist
Halt [E]durch, schmeiss jetzt nicht [A]alles [F#m]hin
Halt [B]durch, und irgendw[F#m]ann wirst du versteh[A]'n
Dass es [B]jedem einmal so [E]geht
[Bridge] (Powerchords)
Und wenn ein S[F#]turm dich in die K[B]nie zwingt
Halt dein Ges[F#]icht einfach gegen den W[B]ind
Egal wie d[F#]unkel die Wolken ü[B]ber dir sind
Sie werden ir[F#]gendwann vorü[A]berzi[B]eh'n
[Refrain] 
Steh a[E]uf, wenn du am B[A]oden bi[B]st
Steh a[E]uf, auch wenn du [A]unten [B]liegst
Steh a[C#]uf, es wird schon ir[A]gendwie we[B]iter ge[E]hen
[Zwiscbenspiel] 
[E] [Esus] [E] [B]  
 
 E |----------------:|
 H |----------------:|
 G |--1----2-1------:|
 D |--2----2-2----4-:|
 A |--2----2-2----2-:|
 E |----------------:|

[2.Stropbe] (Powerchords)
Es ist [E]schwer, seinen [A]Weg nicht zu ver[E]lier'n
Und bei den [A]Regeln und [F#m]Gesetzen [B]hier
Ohne [F#m]Verrat ein Leben zu f[A]ühr'n
Dass man [B]selber noch respektie[E]rt
[Bridge] 
Auch wenn die [F#]Zeichen gerade alle [B]gegen dich stehn
Und [F#]niemand auf dich wetten [B]will
Du brauchst hier [F#]keinem irgend einen Beweis[B] zu bringen
[F#]Es sei denn es ist [A]für dich [B]selbst
[Refrain] 
Steh a[E]uf, wenn du am B[A]oden bi[B]st
Steh a[E]uf, auch wenn du [A]unten [B]liegst
Steh a[C#]uf, es wird schon ir[A]gendwie we[B]iter ge[E]hen
[Zwiscbenspiel] 
[E] [Esus] [E] [B]  
 
 E |----------------:|
 H |----------------:|
 G |--1----2-1------:|
 D |--2----2-2----4-:|
 A |--2----2-2----2-:|
 E |----------------:|

[Bridge] 
[F#m]Nur keine Panik so schlimm w[B]ird es nicht
[F#m]Mehr als deinen Kopf reisst [B]man dir nicht weg
[F#m]Komm und [A]seh' nach [B]vorn
[Refrain] 
Steh a[E]uf, wenn du am B[A]oden bi[B]st
Steh a[E]uf, auch wenn du [A]unten [B]liegst
Steh a[C#]uf, es wird weiter [A]geh[B]en
Steh a[E]uf, wenn du am B[A]oden bi[B]st
Steh a[E]uf, auch wenn du [A]unten [B]liegst
Steh a[C#]uf, es wird schon ir[A]gendwie we[B]iter ge[E]hen
Outro:
[E] [Esus] [E] [Esus] [E] [Esus] [E]  
 
 E |----------------------------------|
 H |----------------------------------|
 G |--1----2-1----2----1----2-----1---|
 D |--2----2-2----2----2----2-----2---|
 A |--2----2-2----2----2----2-----2---|
 E |----------------------------------|


Important: The song above is NOT stored on the Chordie server. The original song is hosted at www.guitaretab.com. Chordie works as a search engine and provides on-the-fly formatting. Chordie does not index songs against artists'/composers' will. To remove this song please click here.

Text color:
Chord color:
Chord grids: 
Font size:    
Page size: 

A B C# E Esus F# F#m
Rate #4 of 12 versions

Login - add to songbook

SHARE PAGE  




You need to log in to post comments