Guitar Tabs, Chords and Lyrics
Major upgrade!! After one year development the new version of Chordie is now online! Please give feedback.


Am Ende  Die Toten Hosen

-This is my first tab. Hope you like it
Riff 1
======
 
 e--5--5-----------|
 h---6---6-6-6-5---|
 g-7--7------------|
 d-----------------|
 a-----------------|
 E-----------------|
 e--5--5-----------|
 h---6---6-6-6-5---|
 g-7--7------------|
 d-----------------|
 a-----------------|
 E-----------------|

Riff 2
======
 
 e--3---3----5--5----5--5--------------|
 h---3---3----5--5----6--6--6--6--5--5-|
 g-3--3-----6--6----7--7---------------|
 d-------------------------------------|
 a-------------------------------------|
 E-------------------------------------|

Intro: Riff 1: 1x
Riff 1
Erst wenn es zu Ende ist,
sehen wir dass es keine Ziele gibt.
Riff 2
Und dass so vieles was wir tun
Zeitverschwendung ist,
Riff 1
Erst wenn das Ende kommt,
werden uns die Fehler klar.
Riff 2
Die jeder Mensch im Lauf der Zeit
immer wieder macht.
Refrain:
[Bm]Was willst du be[F#m]halten
Ausser [A]deiner Erinnerung[E]
Sie [Bm]wird das allerlet[F#m]zte sein
was [A]du noch geben kanns[E]t.
was du geben ka[Bm]nnst[F#m] [E] [Em]
Riff 1: 1x
Riff 1
Erst wenn wir das Ende seh'n,
beginnen wir zu versteh'n,
Riff 2
worum es eigentlich für uns
im Leben geht.
Riff 1
Wenn vor uns das Ende liegt
und wir alleine sind,
Riff 2
erkennen wir für uns das Glück
das wir sonst nie seh'n.
Refrain:
Wie ein [Bm]Netz wirft sich der R[F#m]egen
[A]über das ganze [E]Land.
[Bm]Klopft an unser F[F#m]enster
und eri[A]nnert uns dar[E]an,
dass es kein [Bm]Leben ohne S[F#m]chmerz gibt
und ohne S[A]uche nach dem S[E]inn.
Keine C[Bm]hance etwas aufzuha[F#m]lten.
Keine C[A]hance etwas zurückzudre[E]hen.
zurückzudr[Bm]eeeee[F#m]eeeeee[E]ehn.[Em]
zurückzudr[Bm]eeeee[F#m]eeeeee[E]ehn.[Em]
Play Riff 1
Riff 1
Erst wenn es zu Ende ist,
sehen wir das es keine Ziele gibt.
Riff 2
Und dass das meiste was wir tun
Zeitverschwendung ist.
Riff 3
======
 
 e---0------------5-------------------|
 h-2--2-----------6-------------------|
 g--2--2--2--2--2-7-------------------|
 d------------------------------------|
 a------------------------------------|
 E------------------------------------|

Enjoy.

Important: The song above is NOT stored on the Chordie server. The original song is hosted at www.guitaretab.com. Chordie works as a search engine and provides on-the-fly formatting. Chordie does not index songs against artists'/composers' will. To remove this song please click here.

Text color:
Chord color:
Chord grids: 
Font size:    
Page size: 

A Bm E Em F#m
Rate #3 of 5 versions

Jango Player

Login - add to songbook

SHARE PAGE  



You need to log in to post comments