Guitar Tabs, Chords and Lyrics
Major upgrade!! After one year development the new version of Chordie is now online! Please give feedback.


Rainbow in the Dark  Dio

Acoustic version by sinForge xJp
This IS NOT based off any performances/recordings!!
Standard tuning, Capo 5 (for NO CAPO, read bottom)
*Dadd11 is utilized in the verses, where D (as a chord)
barely has a cadential fucntion or sound. Music talk T_T
 
 e|--2~------- ||---------------------------------------------------|-
 B|--3~------- ||------------0--------------------------------------|-
 G|--2~------- ||---------0-----------0-----0-----0-----0-----0-----|-
 D|--0~------- ||------2-----------2-----0-----0-----0-----0-----0--|-
 A|----------- ||---------------3-----------------------------------|-
 E|----------- ||--0------------------------------------------------|- x4

D.. Em C Dadd11..
When there's [Em]lightning..[C] [Dadd11]
You know, it always bring me [Em]down[C] [Dadd11]
Cause it's [Em]free and I [C]see that it's [Dadd11]me
Who's lost and never [Em]found[C] [Dadd11]
I cry for [Em]magic..[C] [Dadd11]
I feel it dancing in the [Em]light[C] [Dadd11]
It was [Em]cold.[C]. Lost my [Dadd11]hold
To the shadows of the [Em]night..[C] [Dadd11]
[B]..There's no sign of the [C]morning coming..
[B]..You've been left on your [C]own, like a [D]rainbow in the..
 
 e|----------------------------------------------|----------------------------|-
 B|------------------------3--3------------------|---------------------3~-----|-
 G|------------------------2--2------0-----------|---------------------2~-----|-
 D|-0h2--2--------------0--------s4-----4--2--0--|-0h2--2--------------0~-----|-
 A|---------2--3--2--3---------------------------|---------2--3--2--3---------|-
 E|----------------------------------------------|----------------------------|-

..dark A rainbow in the dark..
Do your [Em]demons..[C] [Dadd11]
Do they ever let you [Em]go[C] [Dadd11]
When you've [Em]tried do they [C]hide deep [Dadd11]inside
Is it someone that you [Em]know[C] [Dadd11]
You're a [Em]picture.[C].[Dadd11]
Just an image caught in [Em]time[C] [Dadd11]
We're a [Em]lie.[C]. You and [Dadd11]I
We're words without a [Em]rhyme[C] [Dadd11]
[B]..There's no sign of the [C]morning coming..
[B]..You've been left on your [C]own, like a [D]rainbow in the..
 
 e|----------------------------------------------|----------------------------|-
 B|------------------------3--3------------------|---------------------3~-----|-
 G|------------------------2--2------0-----------|---------------------2~-----|-
 D|-0h2--2--------------0--------s4-----4--2--0--|-0h2--2--------------0~-----|-
 A|---------2--3--2--3---------------------------|---------2--3--2--3---------|-
 E|----------------------------------------------|----------------------------|-

..dark A rainbow in the dark..
 
 e|----------------------------------------------|-
 B|------------------------3--3------------------|-
 G|------------------------2--2------0-----------|-
 D|-0h2--2--------------0--------s4-----4--2--0--|-
 A|---------2--3--2--3---------------------------|-
 E|----------------------------------------------|- x4
 |G|-----0-----------|
 Em.. C.. Dadd11.. |D|-s4-----4--2--0--| Em.. C.. Dadd11..
 |G|-----0-----------|
 Em.. C.. Dadd11.. |D|-s4-----4--2--0--| Em.. C.. Dadd11..

B.. C.. B.. C.. B.. C..
 
 e|--2~------- ||---------------------------------------------------|-
 B|--3~------- ||------------0--------------------------------------|-
 G|--2~------- ||---------0-----------0-----0-----0-----0-----0-----|-
 D|--0~------- ||------2-----------2-----0-----0-----0-----0-----0--|-
 A|----------- ||---------------3-----------------------------------|-
 E|----------- ||--0------------------------------------------------|- x2

When there's [Em]lightning..[C] [Dadd11]
You know, it always bring me [Em]down[C] [Dadd11]
Cause it's [Em]free and I [C]see that it's [Dadd11]me
Who's lost and never [Em]found[C] [Dadd11]
Feel the [Em]magic.[C].[Dadd11]
Feel it dancing in the [Em]air[C] [Dadd11]
But it's [Em]fear.[C]. And you'll [Dadd11]hear
It calling you [Em]beware[C] [Dadd11]
[B]..There's no sign of the [C]morning coming..
[B]..There's no sight of the [C]day..
[B]..You've been left on your [C]own, like a..
 
 e|--2~------- ||---------------------------------------------------|-
 B|--3~------- ||------------0--------------------------------------|-
 G|--2~------- ||---------0-----------0-----0-----0-----0-----0-----|-
 D|--0~------- ||------2-----------2-----0-----0-----0-----0-----0--|-
 A|----------- ||---------------3-----------------------------------|-
 E|----------- ||--0------------------------------------------------|- (repeat as needed)

..rainbow (..dark) (You're) a rainbow in the..

Important: The song above is NOT stored on the Chordie server. The original song is hosted at www.guitaretab.com. Chordie works as a search engine and provides on-the-fly formatting. Chordie does not index songs against artists'/composers' will. To remove this song please click here.

Text color:
Chord color:
Chord grids: 
Font size:    
Page size: 

B C D Dadd11 Em
Rate #1 of 5 versions

Login - add to songbook

SHARE PAGE  



You need to log in to post comments