Guitar Tabs, Chords and Lyrics
Server problems seems to be fixed. Chordie has been experiencing problems with songs disappearing. These issues now seems to be fixed, but still verifying the fix. If you find anything strange, please email admin@chordie.com.


After the World  Disciple

 
 -------------------------------------------------------------------------------

After the World - Disciple
 
 -------------------------------------------------------------------------------

Tabbed by:Ray Kysar
Email:rayk_2@yahoo.com
Tuning:Standard
I couldnt find a tab of the acoustic version of this song so i figured i would do one
the intro/verse is basically a run through of Am, G, and C. This is a pattern of the
picking along with the chords that go with it.
 
 e|--------------------------------------------------------------0-----------------|
 B|--1------------1-----------3-------------3--------1-----------------1-----------|
 G|------2-------------------------0---------------------0-------------------------|
 D|-----------2------------------------0---------------------2---------------------|
 A|--0-----------------------------------------------3-----------------------------|
 E|----------------------------3---------------------------------------------------|
 e|-----------------------------------------------------------------------------|
 B|----5^6 5--------------------------------------------------------------------|
 G|-----------------------------------------------------------------------------|
 D|-----------------------------------------------------------------------------|
 A|-----------------------------------------------------------------------------|
 E|-----------------------------------------------------------------------------|

VERSE 1
[Am] You break the [G]glass
[C]Try to hide your face[Am]
Recorded [G]lines that [C]just will not erase
[Am]And buried [G]in your [C]loss of innocence
You wonder [Am]if you'll [G]find it [C]again
[Am]Was I th[G]ere for the wo[C]rst of all your pain?
[Am]And was I [G]there when your [C]blue skies ran away?
[Am]Was I th[G]ere when the ra[C]ins were flooding you off of your fe[Am]et?
Those were [G]my tears [C]falling down for you, falling down for you
CHORUS
[Cadd9]I'm the one that you'v[C]e been looking for
[G]I'm the one that you've been waiting f[Am]or
I've had my eyes on you ever [F]since you were born
[Cadd9]I will love you after t[C]he rain falls down
[G]I will love you after the sun goes ou[Am]t
I'll have my eyes on you [F]after the world is no more
VERSE 2
[Am] Did I [G]arrange the [C]light of your first day?
[Am]Did I creat[G]e the rh[C]ythm your heart makes?
C[Am]ould you belie[G]ve when your c[C]andle starts to fade
I want [Am]to be the one[G] that you believe
Could [C]take it all away, take your heart away
CHORUS
[Cadd9]I'm the one that you'v[C]e been looking for
[G]I'm the one that you've been waiting f[Am]or
I've had my eyes on you ever [F]since you were born
[Cadd9]I will love you after t[C]he rain falls down
[G]I will love you after the sun goes ou[Am]t
I'll have my eyes on you [F]after the world is no more
BRIDGE
[Am] Isn't [G]my life a [C]clear sign
Since I have crossed over this [Am]chasm
To fill the space between me and you
[Am] And [G]I will do it [C]all over again
Just [Am]look for me, just w[G]ait for me
[Cadd9]The one you've been looking for
[G]The one you've been waiting fo[Am]r
You won't have to [F]look anymore
CHORUS
[Cadd9]I'm the one that you'v[C]e been looking for
[G]I'm the one that you've been waiting f[Am]or
I've had my eyes on you ever [F]since you were born
[Cadd9]I will love you after t[C]he rain falls down
[G]I will love you after the sun goes ou[Am]t
I'll have my eyes on you [F]after the world is no more
ALTERED CHORUS (softer strumming)
[Cadd9]The one you've been looking for
[G]The one you've been waiting f[Am]or
You won't have to [F]look anymore
[Cadd9]I'm the one that you'v[C]e been looking for
[G]I'm the one that you've been waiting f[Am]or
I've had my eyes on you ever [F]since you were born
[Cadd9]I will love you after t[C]he rain falls down
[G]I will love you after the sun goes ou[Am]t
I'll have my eyes on you [F]after the world is no more
[Am]I'll have my eyes on you [F]after the world is no more
| / slide up
| \ slide down
| h hammer-on
| p pull-off
| ~ vibrato
| + harmonic
| x Mute note
===============================================================================

Important: The song above is NOT stored on the Chordie server. The original song is hosted at www.guitaretab.com. Chordie works as a search engine and provides on-the-fly formatting. Chordie does not index songs against artists'/composers' will. To remove this song please click here.

Text color:
Chord color:
Chord grids: 
Font size:    
Page size: 

Am C Cadd9 F G
Rate #1 of 10 versions

Login - add to songbook

SHARE PAGE  



You need to log in to post comments