Guitar Tabs, Chords and Lyrics
Server problems seems to be fixed. Chordie has been experiencing problems with songs disappearing. These issues now seems to be fixed, but still verifying the fix. If you find anything strange, please email admin@chordie.com.


All She Can See  Dishwalla

 
 -----------------------------------------------------------------------------

ALL SHE CAN SEE - Dishwalla
 
 -----------------------------------------------------------------------------

Tabbed by: iNebula
Tuning: standard
CHORDS
Em: 022000
G: 355433
A: 577655
Em6: 022020
Em7: 022030
CM7/E: 022010
Bsus4: 7799xx
Esus4: 0099xx
Asus4: 5577xx
A5: 577xxx
G5: 355xxx
E5: 022xxx
(INTRO)
[Em] [Em7] [Em6] [CM7/E] [Em] [(Em7)]  
[G] [A] [Em]  
[Em]I've ne- I've never known such pure madness
[G]and for [A]her it's all she can [Em]see
[Em]I've [Em7]nev- I've never [Em6]known such [CM7/E]pure [Em]mad[(Em7)]ness
[G]and for h[A]er it's all she can [Em]see
how she [Bsus4]laid low, laid low on the floor
how she y[Esus4]elled no, how she yelled with all of her he[Bsus4]art no, no
still it's [G]al[A]l she can [Em]see
[G] [A] how the pain ran d[Em]eep
[Em]how she holds her [Em7]eyes to the gr[Em6]ound[CM7/E] [Em] [(Em7)]
what a w[G]aste of a so[A]ul, what a w[Em]aste
never never never will [Bsus4]she live without it
think about it, can she live without i[Esus4]t?
never will she live without it[Bsus4]...no
still it's [G]al[A]l she will [Bsus4]see no more, no more, no no...
(SOLO)
 
 e|----------------------------------10--7--10----10--7-----------|
 B|-----------------------------8h10------------------------------|
 G|---------------7---------7h9-----------------------------------|
 D|-----------7h9---9p7-9-----------------------------------------|
 A|-------7h10----------------------------------------------------|
 E|--7h10---------------------------------------------------------|
 e|--10--10/12--7------10--10--10-9-7---------10--10-10-9-7-------|
 B|-----------------------------------8-8-8-----------------8-8-8-|
 G|---------------------------------------------------------------|
 D|---------------------------------------------------------------|
 A|---------------------------------------------------------------|
 E|---------------------------------------------------------------|
 e|--10/7\10---12/7\12---15/10\15---17/12\17---/19--/19--17-15-17-|
 B|---------------------------------------------------------------|
 G|---------------------------------------------------------------|
 D|---------------------------------------------------------------|
 A|---------------------------------------------------------------|
 E|---------------------------------------------------------------|

(end solo on E)
still it's [G]all, it's a[A]ll, all she can [Em]see
still it's [G]all, it's a[A]ll, all she can [Em]see
still it's [G]all, it's [A]all
it's all she can see
(OUTRO)
[Bsus4] [Asus4] [A5] [G5]  
[A5] [G5] [E5]  
 
 ------------------------------------------------------------
 ------------------------------------------------------------

That's my best guess on the solo. It is the first one I have attempted to tab out,
so please make suggestions.
************************************
| / slide up
| \ slide down
| h hammer-on
| p pull-off
| ~ vibrato
| + harmonic
| x Mute note
| b Bend
| pb Pre-bend
| br Bend release
| pbr Pre-bend release
| brb Bend release bend
************************************

Important: The song above is NOT stored on the Chordie server. The original song is hosted at www.guitaretab.com. Chordie works as a search engine and provides on-the-fly formatting. Chordie does not index songs against artists'/composers' will. To remove this song please click here.

Text color:
Chord color:
Chord grids: 
Font size:    
Page size: 

A A5 Asus4 Bsus4 Cm7/E E5 Em Em6 Em7 Esus4 G G5
Rate #1 of 2 versions

Login - add to songbook

SHARE PAGE  




You need to log in to post comments