Guitar Tabs, Chords and Lyrics
Major upgrade!! After one year development the new version of Chordie is now online! Please give feedback.


Nashville Skyline  Dishwalla

I know this is one of their older songs,
but it is a great one, so here is the tab.
CHORDS
[D] [G] [Em] [Asus2]  
 
 1---2---3---o---3---|
 2---3---3---o---3---|
 3---2---o---o---2---|
 4---x---o---2---2---|
 5---x---2---2---x---|
 6---x---3---o---x---|

INTRO
h h V ^^ V ^ ^V
 
 1---o-2--2-2--o-2--3---|---3--------3---|
 2---3----3-3-----------|---3--------3---|
 3---2----2-2-----------|---o--------o---|
 4---x----x-x-----------|---o--------o---|
 5---x----x-x-----------|---2--------2---|
 6---x----x-x-----------|---3----3---3---|

D G x2
VERSE
 
 1---2---|---3--- |---o---2---|
 2---3---|---3--- |---o---3---|
 3---2---|---o--- |---o---2---|
 4---x---|---o--- |---2---x---|
 5---x---|---2--- |---2---x---|
 6---x---|---3--- x4 |---o---x---| x4

Repe[D]at all V[G]erse in barre cho[Em]rds.[D]
DG, EmG, DG
(It works with oen chords, too)
CHORUS
 
 1---o---|---3---|---2---|---3---|
 2---o---|---3---|---3---|---3---|
 3---o---|---o---|---2---|---2---|
 4---2---|---o---|---x---|---2---|
 5---2---|---2---|---x---|---x---|
 6---o---|---3---|---x---|---x---| x3

Last[Em] (fourth[G]) time, [D]single s[Asus2]trum and stop on Em,
single strum G, then go back to Verse.

Important: The song above is NOT stored on the Chordie server. The original song is hosted at www.guitaretab.com. Chordie works as a search engine and provides on-the-fly formatting. Chordie does not index songs against artists'/composers' will. To remove this song please click here.

Text color:
Chord color:
Chord grids: 
Font size:    
Page size: 

Asus2 D Em G
Rate #1 of 3 versions

Login - add to songbook

SHARE PAGE  




You need to log in to post comments