Guitar Tabs, Chords and Lyrics
Major upgrade!! After one year development the new version of Chordie is now online! Please give feedback.


Awaken  Disturbed

Gtr I (Db Ab Db Gb Bb Eb) - 'Guitar 1'
Gtr II (Db Ab Db Gb Bb Eb) - 'Guitar 1 w/flanger'
Intro
Moderately Q=102
[F5E5] [F5E5] [F5E5G#5G5] [F5E5] [F5E5] [G#5G5] [C5/G] 
[4/4] Gtr I
S E S E S S +S S E S S S S S E S E S S +S S E E E
 
 ||--------------------------------|-----------------------------|
 ||o-------------------------------|-----------------------------|
 ||--------------------------------|--------------------------|
 ||------/3-2----------------------|-----/3-2-----------------|
 ||o-3-2------3-2-(2)-3-2-/6-5-5-5-|-3-2------3-2-(2)-/6-5-5-----|
 ||--3-2------3-2-(2)-3-2-/6-5-5-5-|-3-2------3-2-(2)-/6-5-5-----|

[F5E5] [F5E5] [F5E5G#5G5] [F5E5] [F5E5] [G5] [G5]PM--|
|-3-|
S E S E S S +S S E S S S S S E S E S S +E S S E E E
 
 |-------------------------------|-----------------------------||
 |-------------------------------|----------------------------o||
 |-------------------------------|-----------------------------||
 |-----/3-2----------------------|-----/3-2--------------------||
 |-3-2------3-2-(2)-3-2-/6-5-5-5-|-3-2------3-2-(2)-5-5-5-5-5-o||
 |-3-2------3-2-(2)-3-2-/6-5-5-5-|-3-2------3-2-(2)-5-5-5-5-5--||

Verse
[E5]Gtr II[C]
Q. E +Q. S S Q. E +Q. S S
 
 |------0-(0)-------|------0-(0)--------|
 |------------------|-------------------|
 |-9----------------|-9-----------------|
 |-9------------x-x-|-8------------x-x/-|
 |-7------------x-x-|-7------------x-x/-|
 |------------------|-------------------|

[C] Q. E +Q. S S [Em/G] Q. E +Q. S S
 
 |----------------------|---------------------|
 |----------------------|-------------------0-|
 |-/12----12-(12)-------|-------12-(12)-------|
 |-/11--------------x-x-|-14--------------x---|
 |-/10--------------x-x-|-10--------------x---|
 |----------------------|---------------------|

[E5]Q. E +Q. S S [C]Q. E +Q. S S
 
 |------0-(0)-------|------0-(0)-------|
 |------------------|------------------|
 |-9----------------|-9----------------|
 |-9------------x-x-|-8------------x-x-|
 |-7------------x-x-|-7------------x-x-|
 |------------------|------------------|

[C] Q. E +H [C] Q. E +Q. S S
 
 |------------------|---------------------|
 |------------------|---------------------|
 |-12----12-(12)----|-12----12-(12)-------|
 |-11---------------|-11--------------x-x-|
 |-10---------------|-10--------------x-x-|
 |------------------|---------------------|

[E5]Q. E +Q. S S [C]Q. E +Q. S S
 
 |------0-(0)-------|------0-(0)--------|
 |------------------|-------------------|
 |-9----------------|-9-----------------|
 |-9------------x-x-|-8------------x-x/-|
 |-7------------x-x-|-7------------x-x/-|
 |------------------|-------------------|

[C] Q. E +Q. S S [Em/G] Q. E +Q. S S
 
 |----------------------|---------------------|
 |----------------------|-------------------0-|
 |-/12----12-(12)-------|-------12-(12)-------|
 |-/11--------------x-x-|-14--------------x---|
 |-/10--------------x-x-|-10--------------x---|
 |----------------------|---------------------|

[E5]Q. E +Q. S S [C]Q. E +Q. S S
 
 |------0-(0)-------|------0-(0)-------|
 |------------------|------------------|
 |-9----------------|-9----------------|
 |-9------------x-x-|-8------------x-x-|
 |-7------------x-x-|-7------------x-x-|
 |------------------|------------------|

[C] Q. E +H [C] Q. E +S S E E E
 
 |------------------|---------------------------|
 |------------------|---------------------------|
 |-12----12-(12)----|-12----12-(12)-12-12-12-12-|
 |-11---------------|-11----11-(11)-11-11-11-11-|
 |-10---------------|-10----10-(10)-10-10-10-10-|
 |------------------|---------------------------|

Chorus
Gtr I[F5] [C5/G] [F5]
E S S S S E +S S S S S S S S E S S S S E +S S S S S S E
 
 |--------------------------------|------------------------------|
 |--------------------------------|------------------------------|
 |------------------4-4-4-----5-5-|------------------4-4-4-------|
 |----------------------------5-5-|------------------------------|
 |---/5-5-5-5-3-(3)---------------|---/5-5-5-5-3-(3)-------------|
 |-2----------3-(3)-------5-5-----|-2----------3-(3)-------5-5-0-|

[F5] [C5/G] [E5]  
 
 PM------------------------|

E S S S S E +S S S S S S S S e S S S S S S S S S S S S S S
 
 |--------------------------------|-------------------------------|
 |--------------------------------|-------------------------------|
 |------------------4-4-4-----5-5-|-------------------------------|
 |----------------------------5-5-|-2-----------------------------|
 |---/5-5-5-5-3-(3)---------------|-2-----------------------------|
 |-2----------3-(3)-------5-5-----|-2-0-0-0-0---0-0-0-0-0---0-0-0-|

E S S S S [F5]E +S S S S S S [C5/G]S S E S S S S [F5]E +S S S S S S E
 
 |--------------------------------|------------------------------|
 |--------------------------------|------------------------------|
 |------------------4-4-4-----5-5-|------------------4-4-4-------|
 |----------------------------5-5-|------------------------------|
 |---/5-5-5-5-3-(3)---------------|---/5-5-5-5-3-(3)-------------|
 |-2----------3-(3)-------5-5-----|-2----------3-(3)-------5-5-0-|

[F5] [C5/G] [E5]  
 
 PM------------------------|

E S S S S E +S S S S S S S S e S S S S S S S S S S S S S S
 
 |--------------------------------|-------------------------------|
 |--------------------------------|-------------------------------|
 |------------------4-4-4-----5-5-|-------------------------------|
 |----------------------------5-5-|-2-----------------------------|
 |---/5-5-5-5-3-(3)---------------|-2-----------------------------|
 |-2----------3-(3)-------5-5-----|-2-0-0-0-0---0-0-0-0-0---0-0-0-|

[F5E5]S e S S S [F5E5]S S S S S [D5F5E5]S S S E [F5E5]S e S S S [F5E5]S S S S S [D5F5E5]S S S E
 
 ||------------------------------|-----------------------------|
 ||o-----------------------------|-----------------------------|
 ||------------------------------|-----------------------------|
 ||--3s2-------3s2---------3-2---|-3s2-------3s2---------3-2---|
 ||o-3s2-x-x-x-3s2-x-x-x-0-3-2---|-3s2-x-x-x-3s2-x-x-x-0-3-2---|
 ||--3s2-x-x-x-3s2-x-x-x-0-3-2---|-3s2-x-x-x-3s2-x-x-x-0-3-2---|

[F5E5]S e S S S [F5E5]S S S S S [D5F5E5]S S S E [G#G5]S E. +E S S +S E. S S E
 
 |-----------------------------|----------------------------||
 |-----------------------------|---------------------------o||
 |-----------------------------|----------------------------||
 |-3s2-------3s2---------3-2---|-6s5--(5)-5-5-(5)-5--x-x-5--||
 |-3s2-x-x-x-3s2-x-x-x-0-3-2---|-6s5--(5)-5-5-(5)-5--x-x-5-o||
 |-3s2-x-x-x-3s2-x-x-x-0-3-2---|-6s5--(5)-5-5-(5)-5--x-x-5--||

[E5]Gtr II[E5] [C] [C] [C] [Em/G]
H +Q. S S W H +Q. E H +Q. S S
 
 |----------------|----------|------------------|------------------|
 |----------------|----------|------------------|------------------|
 |-9----(9)-------|----------|---------------12-|------------------|
 |-9----(9)---9p7-|-8--------|-/11----(11)---11-|-14----(14)---x-x-|
 |-7----(7)---7---|-7--------|-/10----(10)---10-|-10----(10)---x-x-|
 |----------------|----------|------------------|------------------|

Verse 2
[F5E5]Gtr I[F5E5] [F5E5] [F5E5] [G5]
 
 PM------------------------------------------------|

S S E E S S +S S E E S S S S E E S S +S S E E E
 
 |---------------------------|-------------------------|
 |---------------------------|-------------------------|
 |---------------------------|-------------------------|
 |---------------------------|-------------------------|
 |-3-2-----3-2-(2)-2-2-------|-3-2-----3-2-(2)-5-5-5-5-|
 |-3-2---x-3-2-(2)-2-2---0-0-|-3-2---x-3-2-(2)-5-5-5-5-|

[F5E5] [F5E5] [F5E5] [F5E5] [G5]  
 
 PM------------------------------------------------|

S S E E S S +S S E E S S S S E E S S +S S E E E 3x
 
 ||----------------------------|--------------------------||
 ||o---------------------------|-------------------------o||
 ||----------------------------|--------------------------||
 ||----------------------------|--------------------------||
 ||o-3-2-----3-2-(2)-2-2-------|-3-2-----3-2-(2)-5-5-5-5-o||
 ||--3-2---x-3-2-(2)-2-2---0-0-|-3-2---x-3-2-(2)-5-5-5-5--||

[E5]W +W +W +H +Q. S S
 
 |----------|------------|------------|-------------------|
 |----------|------------|------------|-------------------|
 |----------|------------|------------|-------------------|
 |-2--------|-(2)--------|-(2)--------|-(2)----(2)--------|
 |-2--------|-(2)--------|-(2)--------|-(2)----(2)--------|
 |-2--------|-(2)--------|-(2)--------|-(2)----(2)---x-x--|
 PM----------------------------------------------------|

S E S E S S +S S E S E S S E S E S S +S S E E E
 
 |-----------------------------|---------------------------|
 |-----------------------------|---------------------------|
 |-----------------------------|---------------------------|
 |-----/3-2--------------------|-----/3-2------------------|
 |-----------------------------|---------------------------|
 |-3-2------3-2-(2)-3-2-/6-5-5-|-3-2------3-2-(2)-/6-5-5-5-|

[F5E5] [G5]  
 
 PM------------------------|

S E S E S S +S S E S E S S E S E S S +S S E E E
 
 |-----------------------------|--------------------------|
 |-----------------------------|--------------------------|
 |-----------------------------|--------------------------|
 |-----/3-2--------------------|-----3-2------------------|
 |-----------------------------|---------3-2-(2)------5-5-|
 |-3-2------3-2-(2)-3-2-/6-5-0-|-3-2-----3-2-(2)-/6-5-5-5-|

Chorus 2 & 3
$
Gtr I[F5] [C5/G] [F5]
E S S S S E +S S S S S S S S E S S S S E +S S S S S S E
 
 |--------------------------------|------------------------------|
 |--------------------------------|------------------------------|
 |------------------4-4-4-----5-5-|------------------4-4-4-------|
 |----------------------------5-5-|------------------------------|
 |---/5-5-5-5-3-(3)---------------|---/5-5-5-5-3-(3)-------------|
 |-2----------3-(3)-------5-5-----|-2----------3-(3)-------5-5-0-|

[F5] [C5/G] [E5]  
 
 PM------------------------|

E S S S S E +S S S S S S S S e S S S S S S S S S S S S S S
 
 |--------------------------------|-------------------------------|
 |--------------------------------|-------------------------------|
 |------------------4-4-4-----5-5-|-------------------------------|
 |----------------------------5-5-|-2-----------------------------|
 |---/5-5-5-5-3-(3)---------------|-2-----------------------------|
 |-2----------3-(3)-------5-5-----|-2-0-0-0-0---0-0-0-0-0---0-0-0-|

E S S S S [F5]E +S S S S S S [C5/G]S S E S S S S [F5]E +S S S S S S E
 
 |--------------------------------|------------------------------|
 |--------------------------------|------------------------------|
 |------------------4-4-4-----5-5-|------------------4-4-4-------|
 |----------------------------5-5-|------------------------------|
 |---/5-5-5-5-3-(3)---------------|---/5-5-5-5-3-(3)-------------|
 |-2----------3-(3)-------5-5-----|-2----------3-(3)-------5-5-0-|

To Coda
[F5] [C5/G] [E5]  
 
 PM------------------------|

E S S S S E +S S S S S S S S e S S S S S S S S S S S S S S
 
 |--------------------------------|-------------------------------|
 |--------------------------------|-------------------------------|
 |------------------4-4-4-----5-5-|-------------------------------|
 |----------------------------5-5-|-2-----------------------------|
 |---/5-5-5-5-3-(3)---------------|-2-----------------------------|
 |-2----------3-(3)-------5-5-----|-2-0-0-0-0---0-0-0-0-0---0-0-0-|

[F5E5]S e S S S [F5E5]S S S S S [D5F5E5]S S S E [F5E5]S e S S S [F5E5]S S S S S [D5F5E5]S S S E
 
 ||------------------------------|-----------------------------|
 ||o-----------------------------|-----------------------------|
 ||------------------------------|-----------------------------|
 ||--3s2-------3s2---------3-2---|-3s2-------3s2---------3-2---|
 ||o-3s2-x-x-x-3s2-x-x-x-0-3-2---|-3s2-x-x-x-3s2-x-x-x-0-3-2---|
 ||--3s2-x-x-x-3s2-x-x-x-0-3-2---|-3s2-x-x-x-3s2-x-x-x-0-3-2---|

[F5E5]S e S S S [F5E5]S S S S S [D5F5E5]S S S E [G#G5]S E. +E S S +S E. S S E
 
 |-----------------------------|----------------------------||
 |-----------------------------|---------------------------o||
 |-----------------------------|----------------------------||
 |-3s2-------3s2---------3-2---|-6s5--(5)-5-5-(5)-5--x-x-5--||
 |-3s2-x-x-x-3s2-x-x-x-0-3-2---|-6s5--(5)-5-5-(5)-5--x-x-5-o||
 |-3s2-x-x-x-3s2-x-x-x-0-3-2---|-6s5--(5)-5-5-(5)-5--x-x-5--||

[E5] >
W +W
 
 |----------|--------|
 |----------|--------|
 |----------|--------|
 |-2--------|-(2)----|
 |-2--------|-(2)----|
 |-2--------|-(2)----|

Bridge
Gtr I
Q Q +E Q E Q Q +E Q E Q Q +E Q E
 
 ||-----0--(0)-0----|----0--(0)-0----|----0--(0)-0----|
 ||o--------------0-|--------------0-|--------------0-|
 ||-----------------|----------------|----------------|
 ||-----------------|----------------|----------------|
 ||o----------------|-3--------------|----------------|
 ||--2--------------|----------------|-2--------------|

Q Q +E Q E Q [Am/E]Q +E Q E Q [Bm/F#]Q +E E E E
 
 |----0--(0)-0----|-----------0----|-----------0------||
 |--------------0-|----1--(1)----1-|----3--(3)---3---o||
 |----------------|----2--(2)------|----4--(4)-----4--||
 |----------------|----2--(2)------|----4--(4)--------||
 |-3--------------|-0--------------|-2---------------o||
 |----------------|----------------|------------------||

D.S. al Coda
[Am/E] [B5] <
Q Q +E Q E E E E E E E E E E E E E S S S S S S S S
 
 |-----------0----|-----------------|-------------------------|
 |----1--(1)----1-|-----------------|-------------------------|
 |----2--(2)------|-----------------|-------------------------|
 |----2--(2)------|-4-4-4-4-4-4-4-4-|-4-4-4-4-4-4-4-4-4-4-4-4-|
 |-0--------------|-2-2-2-2-2-2-2-2-|-2-2-2-2-2-2-2-2-2-2-2-2-|
 |----------------|-----------------|-------------------------|

Outro
&
[F5E5]S S S S S S [F5E5]S S S S S S [F5E5]S S S S [F5E5]S S S S S S [F5E5]S S S S S S [F5E5]S S S S
 
 |---------------------------------|---------------------------------|
 |---------------------------------|---------------------------------|
 |---------------------------------|---------------------------------|
 |-3-2---------3-2---------3-2-----|-3-2---------3-2---------3-2-----|
 |-3-2-x-x-x-x-3-2-x-x-x-x-3-2-x-x-|-3-2-x-x-x-x-3-2-x-x-x-x-3-2-x-x-|
 |-3-2-x-x-x-x-3-2-x-x-x-x-3-2-x-x-|-3-2-x-x-x-x-3-2-x-x-x-x-3-2-x-x-|

[F5E5]S S S S S S [F5E5]S S S S S S [F5E5]S S S S [F5E5]S S S S S S [F5E5]S S S S S S [F5E5]S S S S
 
 |---------------------------------|---------------------------------|
 |---------------------------------|---------------------------------|
 |---------------------------------|---------------------------------|
 |-3-2---------3-2---------3-2-----|-3-2---------3-2---------3-2-----|
 |-3-2-x-x-x-x-3-2-x-x-x-x-3-2-x-x-|-3-2-x-x-x-x-3-2-x-x-x-x-3-2-x-x-|
 |-3-2-x-x-x-x-3-2-x-x-x-x-3-2-x-x-|-3-2-x-x-x-x-3-2-x-x-x-x-3-2-x-x-|

[F5E5]S S S S S S [F5E5]S S S S S S [F5E5]S S S S [F5E5]S S S S S S [F5E5]S S S S S S [F5E5]S S S S
 
 |---------------------------------|---------------------------------|
 |---------------------------------|---------------------------------|
 |---------------------------------|---------------------------------|
 |-3-2---------3-2---------3-2-----|-3-2---------3-2---------3-2-----|
 |-3-2-x-x-x-x-3-2-x-x-x-x-3-2-x-x-|-3-2-x-x-x-x-3-2-x-x-x-x-3-2-x-x-|
 |-3-2-x-x-x-x-3-2-x-x-x-x-3-2-x-x-|-3-2-x-x-x-x-3-2-x-x-x-x-3-2-x-x-|

[F5E5]S S S S S S [F5E5]S S S S S S [F5E5]S S S S [F5E5]S S S S S S [F5E5]S S S S S S [F5E5]S S E W
 
 |---------------------------------|-------------------------------|------*|
 |---------------------------------|-------------------------------|------*|
 |---------------------------------|-------------------------------|------*|
 |-3-2---------3-2---------3-2-----|-3-2---------3-2---------3-2---|------*|
 |-3-2-x-x-x-x-3-2-x-x-x-x-3-2-x-x-|-3-2-x-x-x-x-3-2-x-x-x-x-3-2---|------*|
 |-3-2-x-x-x-x-3-2-x-x-x-x-3-2-x-x-|-3-2-x-x-x-x-3-2-x-x-x-x-3-2---|------*|
 --------------------------------------------------------------------------------

Duration Legend
 
 ---------------
 W - whole; H - half; Q - quarter; E - 8th; S - 16th; T - 32nd; X - 64th; a - acciaccatura

+ - note tied to previous; . - note dotted; .. - note double dotted
Uncapitalized letters represent notes that are staccato (1/2 duration)
Irregular groupings are notated above the duration line
Duration letters will always appear directly above the note/fret number it represents the
duration for. Duration letters with no fret number below them represent rests. Multi-
bar rests are notated in the form Wxn, where n is the number of bars to rest for. Low
melody durations appear below the staff
Tablature Legend
 
 ----------------

h - hammer-on
p - pull-off
b - bend
pb - pre-bend
r - bend release (if no number after the r, then release immediately)
/\ - slide into or out of (from/to "nowhere")
s - legato slide
S - shift slide
- natural harmonic
(n) - artificial harmonic
n(n) - tapped harmonic
~ - vibrato
tr - trill
T - tap
TP - trem. picking
PM - palm muting
\n/ - tremolo bar dip; n = amount to dip
\n - tremolo bar down
n/ - tremolo bar up
/n\ - tremolo bar inverted dip
= - hold bend; also acts as connecting device for hammers/pulls
- volume swell (louder/softer)
x - on rhythm slash represents muted slash
o - on rhythm slash represents single note slash
Misc Legend
 
 -----------

| - bar
|| - double bar
||o - repeat start
o|| - repeat end
*| - double bar (ending)
: - bar (freetime)
$ - Segno
& - Coda
Tempo markers - = BPM(8/16=s8/s16), where s8 = swing 8ths, s16 = swing 16ths

Important: The song above is NOT stored on the Chordie server. The original song is hosted at www.guitaretab.com. Chordie works as a search engine and provides on-the-fly formatting. Chordie does not index songs against artists'/composers' will. To remove this song please click here.

Text color:
Chord color:
Chord grids: 
Font size:    
Page size: 

Am/E B5 Bm/F# C C5/G E5 F5 G5
Rate #1 of 6 versions

Jango Player

Login - add to songbook

SHARE PAGE  



You need to log in to post comments