Guitar Tabs, Chords and Lyrics
Server problems seems to be fixed. Chordie has been experiencing problems with songs disappearing. These issues now seems to be fixed, but still verifying the fix. If you find anything strange, please email admin@chordie.com.


Belleville  Django Reinhardt

Q=234(8=s8)
[4/4] Gtr I
|-3-|
H Q E E E H. +E E E E E E E E E E Q E E E E E E
 
 |---------7-8-9-|-10-------(10)-9-|-7---------------|-9--7-9-10-7-----|
 |---------------|-----------------|---9-6-------6-9-|-------------8---|
 |---------------|-----------------|-------7-6-7-----|---------------9-|
 |---------------|-----------------|-----------------|-----------------|
 |---------------|-----------------|-----------------|-----------------|
 |---------------|-----------------|-----------------|-----------------|

Gtr II[D] [D7] [Em7] [A7] [D] [D7]
W Q E E Q E E Q E E Q E E Q E E Q E E
| | | | | | | | | | | |
[/] [/] [/] [/] [/] [/] [/] [/] [/] [/] [/] [/] 
|-3-|
S S S E E E E E E E E E Q Q Q Q E E +Q Q E E Q Q Q
 
 |---------------------|---10--9---8--7---|-6--4-5-(5)------|---10-9---8--7---|
 |---------7-5---------|------------------|-----------------|-----------------|
 |-7-9-7-6-----6-------|------------------|-----------------|-----------------|
 |---------------7-6-5-|------------------|-----------------|-----------------|
 |---------------------|-9-(9)------------|-----------------|-----------------|
 |---------------------|------------------|-----------------|-----------------|

[Em7]Q E E [A7] Q E E [D]Q E E [D7]Q E E [Em7]Q E E [A7] Q E E [D]Q E E [A7]Q E E
| | | | | | | | | | | | | | | |
[/] [/] [/] [/] [/] [/] [/] [/] [/] [/] [/] [/] [/] [/] [/] [/] 
Q E E +Q Q E E Q Q Q Q E E +Q Q E E +E E Q Q
 
 |-6--4-5-(5)------|---10-9---8--7---|-6--4-5-(5)------|-------------------|
 |-----------------|-----------------|-----------------|-----------7--10---|
 |-----------------|-----------------|-----------------|-7-7-(7)-7---------|
 |-----------------|-----------------|-----------------|-------------------|
 |-----------------|-----------------|-----------------|-------------------|
 |-----------------|-----------------|-----------------|-------------------|

[D]Q E E Q E E Q E E [D7]Q E E [Em7]Q E E [A7] Q E E [D]Q E E [D7]Q E E
| | | | | | | | | | | | | | | |
[/] [/] [/] [/] [/] [/] [/] [/] [/] [/] [/] [/] [/] [/] [/] [/] 
Q E E +Q Q E E Q Q Q Q E E +Q Q E E Q Q Q
 
 |-----------------|---10-9---8--7---|-6--4-5-(5)------|---10-9---8--7---|
 |-3----3-(3)------|-----------------|-----------------|-----------------|
 |-----------------|-----------------|-----------------|-----------------|
 |-----------------|-----------------|-----------------|-----------------|
 |-----------------|-----------------|-----------------|-----------------|
 |-----------------|-----------------|-----------------|-----------------|

[Em7]Q E E [A7] Q E E [D]Q E E [D7]Q E E [Em7]Q E E [A7] Q E E [D]Q E E [A7]Q E E
| | | | | | | | | | | | | | | |
[/] [/] [/] [/] [/] [/] [/] [/] [/] [/] [/] [/] [/] [/] [/] [/] 
Q E E +Q Q E E Q Q Q Q E E +Q Q E E +E E Q Q
 
 |-6--4-5-(5)------|---10-9---8--7---|-6--4-5-(5)------|-------------------|
 |-----------------|-----------------|-----------------|-----------7--10---|
 |-----------------|-----------------|-----------------|-7-7-(7)-7---------|
 |-----------------|-----------------|-----------------|-------------------|
 |-----------------|-----------------|-----------------|-------------------|
 |-----------------|-----------------|-----------------|-------------------|

DV DVII G
Q E E Q E E Q E E Q E E
| | | | | | | |
[/] [/] [/] [/] [/] [/] [/] [/]  
Q E E +Q Q E Q E Q Q
 
 |-----------------|---------------10---|
 |-3----3-(3)------|-----------11-------|
 |-----------------|---12---12----------|
 |-----------------|--------------------|
 |-----------------|--------------------|
 |-----------------|--------------------|

GIII(type 2) Dopen
Q E E Q E E Q E E Q E E
| | | | | | | |
[/] [/] [/] [/] [/] [/] [/] [/] 
Q E E +Q Q E Q E E E Q
 
 |-12--10-12-(12)------|----------------------|
 |---------------------|--------------10-12---|
 |---------------------|---11---11-11---------|
 |---------------------|----------------------|
 |---------------------|----------------------|
 |---------------------|----------------------|

DV Gb9 G? Abm7 C#7
Q E E Q E E Q E E Q E E Q E E Q E E Q E E Q E E
| | | | | | | | | | | | | | | |
[/] [/] [/] [/] [/] [/] [/] [/] [/] [/] [/] [/] [/] [/] [/] [/] 
|--3---|
H E Q E E E Q H Q E +H E Q Q Q E E Q
 
 |-9--------9---9-|-9-9-9---9------|-9--9-(9)------9-|-12-11---9---11---------|
 |----------------|----------------|-----------------|----------------10-9----|
 |----------------|----------------|-----------------|------------------------|
 |----------------|----------------|-----------------|------------------------|
 |----------------|----------------|-----------------|------------------------|
 |----------------|----------------|-----------------|------------------------|

[Gb9] Q E E [A7] Q E E [D]Q E E [D7]Q E E [Em7]Q E E [A7] Q E E [D]Q E E [D7]Q E E
| | | | | | | | | | | | | | | |
[/] [/] [/] [/] [/] [/] [/] [/] [/] [/] [/] [/] [/] [/] [/] [/] 
Q. E +H E E Q Q Q Q E E +Q Q E E Q Q Q
 
 |---------------------|---10-9---8--7---|-6--4-5-(5)------|---10-9---8--7---|
 |--------10-(10)------|-----------------|-----------------|-----------------|
 |-11------------------|-----------------|-----------------|-----------------|
 |---------------------|-----------------|-----------------|-----------------|
 |---------------------|-----------------|-----------------|-----------------|
 |---------------------|-----------------|-----------------|-----------------|

[Em7]Q E E [A7] Q E E [D]Q E E [D7]Q E E [Em7]Q E E [A7] Q E E [D]Q E E [A7]Q E E
| | | | | | | | | | | | | | | |
[/] [/] [/] [/] [/] [/] [/] [/] [/] [/] [/] [/] [/] [/] [/] [/] 
Q E E +Q Q E E Q Q Q Q E E +Q Q E E +E E Q Q
 
 |-6--4-5-(5)------|---10-9---8--7---|-6--4-5-(5)------|-------------------|
 |-----------------|-----------------|-----------------|-----------7--10---|
 |-----------------|-----------------|-----------------|-7-7-(7)-7---------|
 |-----------------|-----------------|-----------------|-------------------|
 |-----------------|-----------------|-----------------|-------------------|
 |-----------------|-----------------|-----------------|-------------------|

[D]Q E E Q E E Q E E [D7] Q E E
| | | | | | | |
[/] [/] [/] [/] [/] [/] [/] [/] 
|-3-|
Q E E Q S S S E E E E E E E E E
 
 |-------------------|-----------------10-|
 |-3----3----9-7-6-7-|------------9-12----|
 |-------------------|-----7-9-10---------|
 |-------------------|-8-9----------------|
 |-------------------|--------------------|
 |-------------------|--------------------|

[Em7] Q E E [A7]Q E E [D] Q E E [D7]Q E E
| | | | | | | |
[/] [/] [/] [/] [/] [/] [/] [/] 
E E E E E E E E E E E E E E Q
 
 |-13-14-9-10---------|------------------|
 |--------------8-7---|-10-7-------------|
 |------------------9-|------9-7---7-----|
 |--------------------|----------9---9---|
 |--------------------|------------------|
 |--------------------|------------------|

[Em7]Q E E [A7]Q E E [D]Q E E [D7]Q E E [Em7]Q E E [A7]Q E E [D]Q E E [A7]Q E E
| | | | | | | | | | | | | | | |
[/] [/] [/] [/] [/] [/] [/] [/] [/] [/] [/] [/] [/] [/] [/] [/] 
Q. S S H E E E E E E E E Q E E H E E E E E E E E
 
 |-------------------|---------7-6-5---|---------------|---------5-4-3-2--|
 |-------------------|---------------7-|-5----5--------|---3-2-3----------|
 |-------------------|-------5---------|---------------|------------------|
 |-8-----10-8-7------|---4-7-----------|---------------|------------------|
 |-------------------|-----------------|---------------|------------------|
 |-------------------|-----------------|---------------|------------------|

[D]Q E E Q E E Q E E [D7]Q E E [Em7]Q E E [A7]Q E E [D]Q E E [D7]Q E E
| | | | | | | | | | | | | | | |
[/] [/] [/] [/] [/] [/] [/] [/] [/] [/] [/] [/] [/] [/] [/] [/] 
|--3--|
E E E E Q Q E E E E E E E E E E E E E E E E E E Q Q Q Q
 
 |-1-0------------|-----------------|-----------------|---------0----------|
 |-----2---3------|-------0-0-0---0-|-0-0---0-0-0-0-0-|-0-0-0---5-0--------|
 |-------2--------|-4-4-4-------4---|-----4-----------|-----------4---0----|
 |----------------|-----------------|-----------------|---------------5----|
 |----------------|-----------------|-----------------|--------------------|
 |----------------|-----------------|-----------------|--------------------|

[Em7]Q E E [A7]Q E E [D]Q E E [D7]Q E E [Em7]Q E E [A7]Q E E [D]Q E E [A7]Q E E
| | | | | | | | | | | | | | | |
[/] [/] [/] [/] [/] [/] [/] [/] [/] [/] [/] [/] [/] [/] [/] [/] 
H H H E E E E E E E E E E E E Q Q Q Q
 
 |---------------|--------7-5-----|-----------------|---------------|
 |---------------|------------8-5-|-------------7-5-|---------------|
 |---------------|----------------|-5-------4-7-----|-7--7---7------|
 |-0------0------|-0--------------|---7-4-5---------|-----------7---|
 |-5------5------|-5--------------|-----------------|---------------|
 |---------------|----------------|-----------------|---------------|

DV DVII G GIII(type 2) Dopen
Q E E Q E E Q E E Q E E Q E E Q E E Q E E Q E E
| | | | | | | | | | | | | | | |
[/] [/] [/] [/] [/] [/] [/] [/] [/] [/] [/] [/] [/] [/] [/] [/] 
|--3--|
Q E E H E E E E E H Q. S S E E E E E E E E Q E E
 
 |---------------|-----------6-10------|-8-----10-8-6-------|-------7-10--6-9--|
 |---------------|-------8-------------|--------------8-----|-----7------------|
 |----6-7--------|---7-9---------------|----------------7---|---7--------------|
 |-7-------------|---------------------|------------------8-|-9----------------|
 |---------------|---------------------|--------------------|------------------|
 |---------------|---------------------|--------------------|------------------|

DV Gb9
Q E E Q E E Q E E Q E E
| | | | | | | |
[/] [/] [/] [/] [/] [/] [/] [/]  
 
 |---3---|

E E E E Q E E E E E E E E E E E
 
 |-7---------------|-------6-9-13-11-13---11-|
 |---10-7----------|-----7-------------------|
 |--------7--------|---6---------------------|
 |----------9--6-7-|-8-----------------------|
 |-----------------|-------------------------|
 |-----------------|-------------------------|

G? Abm7 C#7
Q E E Q E E Q E E Q E E
| | | | | | | |
[/] [/] [/] [/] [/] [/] [/] [/] 
E E Q H E S S E E Q Q
 
 |-9----------------|--------------9--------|
 |---11-------------|-----------11----11----|
 |------10---8------|-11-10-9-8-------------|
 |------------------|-----------------------|
 |------------------|-----------------------|
 |------------------|-----------------------|

[Gb9] Q E E [A7] Q E E [D]Q E E [D7]Q E E
| | | | | | | |
[/] [/] [/] [/] [/] [/] [/] [/]  
H Q Q H E E E E
 
 |-----------------|-------------------|
 |---------10------|--------9-10-10-10-|
 |-11--------------|-------------------|
 |-----------------|-------------------|
 |-----------------|-------------------|
 |-----------------|-------------------|

[Em7] Q E E [A7] Q E E [D] Q E E [D7] Q E E
| | | | | | | |
[/] [/] [/] [/] [/] [/] [/] [/] 
 
 |---3----|

E E E E E E E E E +Q E +Q Q Q
 
 |-------------------------|----------------------------------|
 |-10-10-10-10-10-10-10-10-|-12b13==(12)r-----(12)-12---10----|
 |-------------------------|----------------------------------|
 |-------------------------|----------------------------------|
 |-------------------------|----------------------------------|
 |-------------------------|----------------------------------|

[Em7] Q E E [A7] Q E E [D]Q E E [D7] Q E E
| | | | | | | |
[/] [/] [/] [/] [/] [/] [/] [/] 
 
 |--3---| |-3-|

Q Q Q Q Q E E E +E E E E E E
 
 |---------------------|-------------14-13-12----|
 |---------------------|----------------------15-|
 |-11-9----------------|-------------------------|
 |--------12---10--9---|-7-9-7-(7)---------------|
 |---------------------|-------------------------|
 |---------------------|-------------------------|

[Em7] Q E E [A7] Q E E [D]Q E E [A7]Q E E
| | | | | | | |
[/] [/] [/] [/] [/] [/] [/] [/] 
E E E E Q. S S E E E E Q Q
 
 |------------------------|-----2-5-5--5----|
 |-12-----------------5-3-|-2-3-------------|
 |----12------------------|-----------------|
 |-------14-13-12---------|-----------------|
 |------------------------|-----------------|
 |------------------------|-----------------|

[D]Q E E Q E E Q E E [D7] Q E E
| | | | | | | |
[/] [/] [/] [/] [/] [/] [/] [/] 
[E] [E] [E] [E] [+B] [E] [E] [E] [E] [E] [E] [E] [E]  
 
 |-5-3-2------------|---------9-12-10-9-10-|
 |-------3-(3)------|---10-12--------------|
 |------------------|----------------------|
 |------------------|----------------------|
 |------------------|----------------------|
 |------------------|----------------------|

[Em7] Q E E [A7] Q E E [D] Q E E [D7] Q E E
| | | | | | | |
[/] [/] [/] [/] [/] [/] [/] [/] 
[E] [E] [E] [E] [E] [E] [E] [E] [E] [E] [E] [E] [E] [E] [E] [E]  
 
 |-14-12-11-12-15-14-13-14-|-17-14-------------13-16-|
 |-------------------------|-------15-------15-------|
 |-------------------------|----------14-13----------|
 |-------------------------|-------------------------|
 |-------------------------|-------------------------|
 |-------------------------|-------------------------|

[Em7] Q E E [A7] Q E E [D] Q E E [D7] Q E E
| | | | | | | |
[/] [/] [/] [/] [/] [/] [/] [/] 
Q E E E E E E H H
 
 |-15--12----------------|----------11-------|
 |--------15-12----------|----------11-------|
 |--------------12-------|----------11-------|
 |-----------------14-11-|-10------(10)------|
 |-----------------------|-------------------|
 |-----------------------|-------------------|

[Em7]Q E E [A7] Q E E [D]Q E E [A7]Q E E
| | | | | | | |
[/] [/] [/] [/] [/] [/] [/] [/] 
H Q Q Q E S S E E Q
 
 |--------10-------|------12-10-9-10-------|
 |--------10-------|-----------------10----|
 |--------10-------|-----------------------|
 |-9------(9)------|-----------------------|
 |-----------------|-----------------------|
 |-----------------|-----------------------|

[D] Q E E Q E E Q E E [D7] Q E E
| | | | | | | |
[/] [/] [/] [/] [/] [/] [/] [/] 
Q E E H E E E E E E E E
 
 |-------------------|-------5-10-11-8---|
 |-10----------------|-----7-----------8-|
 |-----12-11---------|---7---------------|
 |-----------12------|-9-----------------|
 |-------------------|-------------------|
 |-------------------|-------------------|

[Em7]Q E E [A7] Q E E [D] Q E E [D7] Q E E
| | | | | | | |
[/] [/] [/] [/] [/] [/] [/] [/] 
E E E E E E Q Q E S S Q. E
 
 |-------8-12-15-16---|-17----16-15------------|
 |-----8--------------|------------------------|
 |-8-9----------------|-------------13-----14--|
 |--------------------|------------------------|
 |--------------------|------------------------|
 |--------------------|------------------------|

[Em7]Q E E [A7] Q E E [D]Q E E [D7] Q E E
| | | | | | | |
[/] [/] [/] [/] [/] [/] [/] [/] 
E S S Q +E E Q Q E E Q E E
 
 |--------------------------|----13-11-12--------|
 |--------------------------|--------------10----|
 |---13-12------------------|-----------------11-|
 |--------------------------|--------------------|
 |---------11---(11)-12-----|--------------------|
 |--------------------------|--------------------|

[Em7] Q E E [A7]Q E E [D]Q E E [A7] Q E E
| | | | | | | |
[/] [/] [/] [/] [/] [/] [/] [/] 
|-3-|
E E E E E E E E E E E E E Q E E
 
 |------10-6---------|-------------------|
 |-----------8-------|-----------10------|
 |-10-9--------7-0---|-----------------7-|
 |-----------------8-|-7-8-7-6-7-----7---|
 |-------------------|-------------------|
 |-------------------|-------------------|

DV DVII G GIII(type 2) Dopen
Q E E Q E E Q E E Q E E Q E E Q E E Q E E Q E E
| | | | | | | | | | | | | | | |
[/] [/] [/] [/] [/] [/] [/] [/] [/] [/] [/] [/] [/] [/] [/] [/] 
|-3-|
E Q. E E E E E E E E E E E E E E E E E E E E E E E E E E E E E
 
 |------------------|-----2-5-3-5-3-2-3-|-10-6-------------|---7-9-10-6-9-7-----|
 |------------------|---4---------------|------8-----------|-7--------------10--|
 |---7------------2-|-5-----------------|--------7-0-----7-|--------------------|
 |------------3-4---|-------------------|------------8-9---|--------------------|
 |------------------|-------------------|------------------|--------------------|
 |------------------|-------------------|------------------|--------------------|

DV Gb9 G? Abm7 C#7
Q E E Q E E Q E E Q E E Q E E Q E E Q E E Q E E
| | | | | | | | | | | | | | | |
[/] [/] [/] [/] [/] [/] [/] [/] [/] [/] [/] [/] [/] [/] [/] [/] 
E E Q H Q E E E E E E Q E E Q E E E E E E Q Q
 
 |----------------|------------6-9-|-13----11------6-|-9-7-----6--6---|
 |-7--------------|----------7-----|-----------------|----------------|
 |---7------------|--------6-------|-----------------|-----8-8--------|
 |-----9---7------|-8----8---------|-----------------|----------------|
 |---------0------|----------------|-----------------|----------------|
 |----------------|----------------|-----------------|----------------|

[Gb9]Q E E [A7] Q E E [D]Q E E [D7] Q E E
| | | | | | | |
[/] [/] [/] [/] [/] [/] [/] [/]  
H Q Q E E E E E E E E
 
 |----------------|-5-5-5----------5-5-|
 |-7------10------|-------12-12-12-----|
 |----------------|--------------------|
 |----------------|--------------------|
 |----------------|--------------------|
 |----------------|--------------------|

[Em7]Q E E [A7]Q E E [D]Q E E [D7] Q E E
| | | | | | | |
[/] [/] [/] [/] [/] [/] [/] [/] 
E E E E E E Q Q E E E E E E
 
 |-5----------6-6-6---|------13-12-10-------|
 |---12-12-12---------|---------------13-12-|
 |--------------------|---------------------|
 |--------------------|---------------------|
 |--------------------|---------------------|
 |--------------------|---------------------|

[Em7] Q E E [A7]Q E E [D] Q E E [D7]Q E E
| | | | | | | |
[/] [/] [/] [/] [/] [/] [/] [/] 
 
 |---3---|

E E E E E E E Q H Q E E
 
 |----------------------------|------------14-13-|
 |-10-------------------------|------------------|
 |----12-10-12---10-9---------|------------------|
 |--------------------12-11---|-10---------------|
 |----------------------------|------------------|
 |----------------------------|------------------|

[Em7] Q E E [A7] Q E E [D] Q E E [A7] Q E E
| | | | | | | |
[/] [/] [/] [/] [/] [/] [/] [/] 
E E E E E S S E E E E Q E E E E
 
 |-12-------------------------|-------------------------|
 |----15-12-------------------|-------------------------|
 |----------12----------------|-11-14-15---15-12--------|
 |-------------14-13-12-11-12-|------------------14-11--|
 |----------------------------|-------------------------|
 |----------------------------|-------------------------|

To Coda
[D]Q E E Q E E Q E E [D7]Q E E [Em7]Q E E [A7]Q E E [D]Q E E [D7]Q E E
| | | | | | | | | | | | | | | |
[/] [/] [/] [/] [/] [/] [/] [/] [/] [/] [/] [/] [/] [/] [/] [/] 
 
 |---------------|---------------|---------------|---------------|
 |---------------|---------------|---------------|---------------|
 |---------------|---------------|---------------|---------------|
 |---------------|---------------|---------------|---------------|
 |---------------|---------------|---------------|---------------|
 |---------------|---------------|---------------|---------------|

[Em7]Q E E [A7]Q E E [D]Q E E [D7]Q E E [Em7]Q E E [A7]Q E E [D]Q E E [A7]Q E E
| | | | | | | | | | | | | | | |
[/] [/] [/] [/] [/] [/] [/] [/] [/] [/] [/] [/] [/] [/] [/] [/] 
 
 |---------------|---------------|---------------|---------------|
 |---------------|---------------|---------------|---------------|
 |---------------|---------------|---------------|---------------|
 |---------------|---------------|---------------|---------------|
 |---------------|---------------|---------------|---------------|
 |---------------|---------------|---------------|---------------|

[D]Q E E Q E E Q E E [D7]Q E E [Em7]Q E E [A7]Q E E [D]Q E E [D7]Q E E
| | | | | | | | | | | | | | | |
[/] [/] [/] [/] [/] [/] [/] [/] [/] [/] [/] [/] [/] [/] [/] [/] 
 
 |---------------|---------------|---------------|---------------|
 |---------------|---------------|---------------|---------------|
 |---------------|---------------|---------------|---------------|
 |---------------|---------------|---------------|---------------|
 |---------------|---------------|---------------|---------------|
 |---------------|---------------|---------------|---------------|

[Em7]Q E E [A7]Q E E [D]Q E E [D7]Q E E [Em7]Q E E [A7]Q E E [D]Q E E [A7]Q E E
| | | | | | | | | | | | | | | |
[/] [/] [/] [/] [/] [/] [/] [/] [/] [/] [/] [/] [/] [/] [/] [/] 
 
 |---------------|---------------|---------------|---------------|
 |---------------|---------------|---------------|---------------|
 |---------------|---------------|---------------|---------------|
 |---------------|---------------|---------------|---------------|
 |---------------|---------------|---------------|---------------|
 |---------------|---------------|---------------|---------------|

DV DVII G GIII(type 2) Dopen
Q E E Q E E Q E E Q E E Q E E Q E E Q E E Q E E
| | | | | | | | | | | | | | | |
[/] [/] [/] [/] [/] [/] [/] [/] [/] [/] [/] [/] [/] [/] [/] [/] 
 
 |---------------|---------------|---------------|---------------|
 |---------------|---------------|---------------|---------------|
 |---------------|---------------|---------------|---------------|
 |---------------|---------------|---------------|---------------|
 |---------------|---------------|---------------|---------------|
 |---------------|---------------|---------------|---------------|

DV Gb9 G? Abm7 C#7
Q E E Q E E Q E E Q E E Q E E Q E E Q E E Q E E
| | | | | | | | | | | | | | | |
[/] [/] [/] [/] [/] [/] [/] [/] [/] [/] [/] [/] [/] [/] [/] [/] 
 
 |---------------|---------------|---------------|---------------|
 |---------------|---------------|---------------|---------------|
 |---------------|---------------|---------------|---------------|
 |---------------|---------------|---------------|---------------|
 |---------------|---------------|---------------|---------------|
 |---------------|---------------|---------------|---------------|

&
Gb9 A7 D7IX
Q E E Q E E Q E E Q E E Q E E Q E E Q E E Q E E
| | | | | | | | | | | | | | | |
[/] [/] [/] [/] [/] [/] [/] [/] [/] [/] [/] [/] [/] [/] [/] [/] 
Gtr I
W
 
 |---------------|---------------|---------------|---------------|
 |---------------|---------------|---------------|---------------|
 |---------------|---------------|---------------|---------------|
 |---------------|---------------|---------------|---------------|
 |---------------|---------------|---------------|---------------|
 |---------------|---------------|---------------|---------------|

Q E E Q E E [F9]Q E E [F7] Q E E [Gm7]Q E E [C7] Q E E [F9]Q E E [F7] Q E E
| | | | | | | | | | | | | | | |
[/] [/] [/] [/] [/] [/] [/] [/] [/] [/] [/] [/] [/] [/] [/] [/] 
E E Q Q Q Q E E +Q Q E E Q Q Q
 
 |---------------|---13-12---11--10---|-9--7-8-(8)------|---13-12---11--10---|
 |---------------|--------------------|-----------------|--------------------|
 |---------------|--------------------|-----------------|--------------------|
 |---------------|--------------------|-----------------|--------------------|
 |---------------|--------------------|-----------------|--------------------|
 |---------------|--------------------|-----------------|--------------------|

[Gm7]Q E E [C7] Q E E [F9]Q E E [F7] Q E E
| | | | | | | |
[/] [/] [/] [/] [/] [/] [/] [/]  
Q E E +Q Q E E Q Q Q
 
 |-9--7-8-(8)------|---13-12---11--10---|
 |-----------------|--------------------|
 |-----------------|--------------------|
 |-----------------|--------------------|
 |-----------------|--------------------|
 |-----------------|--------------------|

[Gm7]Q E E [C7] Q E E [F9] Q E E [C7] Q E E
| | | | | | | |
[/] [/] [/] [/] [/] [/] [/] [/] 
Q E E +Q Q E E +E E Q Q
 
 |-9--7-8-(8)------|------------------------|
 |-----------------|---------------10--13---|
 |-----------------|-10-10-(10)-10----------|
 |-----------------|------------------------|
 |-----------------|------------------------|
 |-----------------|------------------------|

[F9]Q E E Q E E Q E E [F7] Q E E [Gm7]Q E E [C7] Q E E [F9]Q E E [F7] Q E E
| | | | | | | | | | | | | | | |
[/] [/] [/] [/] [/] [/] [/] [/] [/] [/] [/] [/] [/] [/] [/] [/] 
Q E E +Q Q E E Q Q Q Q E E +Q Q E E Q Q Q
 
 |-----------------|---13-12---11--10---|-9--7-8-(8)------|---13-12---11--10---|
 |-6----6-(6)------|--------------------|-----------------|--------------------|
 |-----------------|--------------------|-----------------|--------------------|
 |-----------------|--------------------|-----------------|--------------------|
 |-----------------|--------------------|-----------------|--------------------|
 |-----------------|--------------------|-----------------|--------------------|

[Gm7]Q E E [C7] Q E E [F9]Q E E [F7] Q E E
| | | | | | | |
[/] [/] [/] [/] [/] [/] [/] [/]  
Q E E +Q Q E E Q Q Q
 
 |-9--7-8-(8)------|---13-12---11--10---|
 |-----------------|--------------------|
 |-----------------|--------------------|
 |-----------------|--------------------|
 |-----------------|--------------------|
 |-----------------|--------------------|

[Gm7]Q E E [C7] Q E E [F9] Q E E [C7] Q E E
| | | | | | | |
[/] [/] [/] [/] [/] [/] [/] [/] 
Q E E +Q Q E E +E E Q Q
 
 |-9--7-8-(8)------|------------------------|
 |-----------------|---------------10--13---|
 |-----------------|-10-10-(10)-10----------|
 |-----------------|------------------------|
 |-----------------|------------------------|
 |-----------------|------------------------|

FVIII F BbIII FIII
Q E E Q E E Q E E Q E E Q E E Q E E Q E E Q E E
| | | | | | | | | | | | | | | |
[/] [/] [/] [/] [/] [/] [/] [/] [/] [/] [/] [/] [/] [/] [/] [/] 
Q Q E E E E E E E E E E E E E E E E E E E E E E E E E E E E
 
 |----------------|---5-8-7-6-------|-----------6-9-10-|--------------------|
 |-6--------------|-6---------8-6---|---------6--------|---9-10-------------|
 |--------------5-|---------------6-|-------6----------|--------9-10------9-|
 |----------6-7---|-----------------|-8-5-8------------|-------------9-10---|
 |----------------|-----------------|------------------|--------------------|
 |----------------|-----------------|------------------|--------------------|

Q E E Q E E [A9] Q E E Q E E
| | | | | | | |
[/] [/] [/] [/] [/] [/] [/] [/] 
E E E E E E +Q E E E E E E E E
 
 |---------9-10-11-(11)---|-12-9----------------|
 |----9-10----------------|------10-0-----------|
 |-10---------------------|-----------9---------|
 |------------------------|-------------11---11-|
 |------------------------|---------------------|
 |------------------------|---------------------|

Bb? Bm7 E7
Q E E Q E E Q E E Q E E
| | | | | | | |
[/] [/] [/] [/] [/] [/] [/] [/] 
E E Q Q E E E E E E Q Q
 
 |------9---12----11-|-10----------9------|
 |---10--------------|----------10--------|
 |-9-----------------|----10-11-------9---|
 |-------------------|--------------------|
 |-------------------|--------------------|
 |-------------------|--------------------|

[A9] Q E E [C7] Q E E [F9]Q E E [F7] Q E E
| | | | | | | |
[/] [/] [/] [/] [/] [/] [/] [/] 
Q S S S S Q Q E E Q Q Q
 
 |------------------------|---13-12---11--10---|
 |-10----10-11-12-13------|---13-12---11--10---|
 |------------------------|---14-13---12--11---|
 |------------------------|--------------------|
 |------------------------|--------------------|
 |------------------------|--------------------|

[Gm7] Q E E [C7] Q E E [F9]Q E E [F7] Q E E
| | | | | | | |
[/] [/] [/] [/] [/] [/] [/] [/] 
Q E E +Q Q E E Q Q Q
 
 |--9--7-8-(8)------|---13-12---11--10---|
 |--9--7-8-(8)------|---13-12---11--10---|
 |-10--8-9-(9)------|---14-13---12--11---|
 |------------------|--------------------|
 |------------------|--------------------|
 |------------------|--------------------|

Gm7 C7 F9 F7 Gm7 C7 FVIII
Q E E Q E E Q E E Q E E Q E E Q E E Q E E Q E E
| | | | | | | | | | | | | | | |
[/] [/] [/] [/] [/] [/] [/] [/] [/] [/] [/] [/] [/] [/] [/] [/] 
Q E E +Q Q E E Q Q Q Q E E +Q Q Q Q Q Q
 
 |--9--7-8-(8)------|---13-12---11--10---|--9--7-8-(8)------|----5---8--10---|
 |--9--7-8-(8)------|---13-12---11--10---|--9--7-8-(8)------|-6--------------|
 |-10--8-9-(9)------|---14-13---12--11---|-10--8-9-(9)------|--------5---7---|
 |------------------|--------------------|------------------|----7-----------|
 |------------------|--------------------|------------------|-8--------------|
 |------------------|--------------------|------------------|----------------|

Q E E Q E E Q E E Q E E Q E E Q E E [F6] W
| | | | | | | | | | | | |
[/] [/] [/] [/] [/] [/] [/] [/] [/] [/] [/] [/] [/] 
Q Q Q Q Q Q Q Q Q E E Q Q +W
 
 |-11--11---11--10---|-8--8---8--5---|---------------|--------*|
 |-------------------|---------------|-6-------------|--------*|
 |--8---8----8---7---|-5--5---5------|------7----7---|-(7)----*|
 |-------------------|-----------7---|------7----7---|-(7)----*|
 |-------------------|---------------|-8----8----8---|-(8)----*|
 |-------------------|---------------|------8----8---|-(8)----*|

Duration Legend
 
 ---------------
 W - whole; H - half; Q - quarter; E - 8th; S - 16th; T - 32nd; X - 64th; a - acciaccatura

+ - note tied to previous; . - note dotted; .. - note double dotted
Uncapitalized letters represent notes that are staccato (1/2 duration)
Irregular groupings are notated above the duration line
Duration letters will always appear directly above the note/fret number it represents the
duration for. Duration letters with no fret number below them represent rests. Multi-
bar rests are notated in the form Wxn, where n is the number of bars to rest for. Low
melody durations appear below the staff
Tablature Legend
 
 ----------------

h - hammer-on
p - pull-off
b - bend
pb - pre-bend
r - bend release (if no number after the r, then release immediately)
/\ - slide into or out of (from/to "nowhere")
s - legato slide
S - shift slide
- natural harmonic
(n) - artificial harmonic
n(n) - tapped harmonic
~ - vibrato
tr - trill
T - tap
TP - trem. picking
PM - palm muting
\n/ - tremolo bar dip; n = amount to dip
\n - tremolo bar down
n/ - tremolo bar up
/n\ - tremolo bar inverted dip
= - hold bend; also acts as connecting device for hammers/pulls
- volume swell (louder/softer)
x - on rhythm slash represents muted slash
o - on rhythm slash represents single note slash
Misc Legend
 
 -----------

| - bar
|| - double bar
||o - repeat start
o|| - repeat end
*| - double bar (ending)
: - bar (freetime)
$ - Segno
& - Coda
Tempo ma

Important: The song above is NOT stored on the Chordie server. The original song is hosted at www.guitaretab.com. Chordie works as a search engine and provides on-the-fly formatting. Chordie does not index songs against artists'/composers' will. To remove this song please click here.

Text color:
Chord color:
Chord grids: 
Font size:    
Page size: 

A7 A9 C7 D D7 E Em7 F6 F7 F9 Gb9 Gm7
Rate #1 of 3 versions

Jango Player

Login - add to songbook

SHARE PAGE  



You need to log in to post comments