Guitar Tabs, Chords and Lyrics
Server problems seems to be fixed. Chordie has been experiencing problems with songs disappearing. These issues now seems to be fixed, but still verifying the fix. If you find anything strange, please email admin@chordie.com.


If We Try  Don McLean

Title: If We Try
Artist: Don McLean
Tabbed By: Jenkin Demano
~STANDARD TUNING~
This is mY 2nd time,,hOpE yOu Lyk iT!...
eNjOy PlaYing diS!..gO girl!..wahahahahaha.. Pwede nA paG cHAgaAn tOnG gaWa kO..
pag me comment..
dito pos a Ultimate GuiTar,, ichinigo po nEm kO..hehehe
Enjoy nG maDame!..
INTRO
 
 E|----5-------4--------2--------0-------2----------0---------0-|
 B|--------2-------2--------2--------2------2--2--2-----2--2-2--|
 G|-------2-2-----2-2------2-2------2---------4-4-----4---4-4---|
 D|-------------------------------------------------------------|
 A|----0-------0--------0--------0----------0-----0-----0----0--|
 E|-------------------------------------------------------------|

Verse:
 
 E|----5-------4--------2--------0-------2----------0---------0-|
 B|--------2-------2--------2--------2------2--2--2-----2--2-2--|
 G|-------2-2-----2-2------2-2------2---------4-4-----4---4-4---|
 D|-------------------------------------------------------------|
 A|----0-------0--------0--------0----------0-----0-----0----0--|
 E|-------------------------------------------------------------|

When I See you ON the Street, I Lose . . . . . .
 
 E|----5-------4--------2--------0-------2--------------0-|
 B|--------2-------2--------2--------2------2------2--2---|
 G|-------2-2-----2-2------2-2------2-------------4-4-----|
 D|-------------------------------------------------------|
 A|----0-------0--------0--------0----------0---------0---|
 E|-------------------------------------------------------|

Just the Thought that we might be Creates anticipation
 
 E|---------------------------0-----|
 B|------2----2-----2------2--------|
 G|----4---4-----4-----4------------|
 D|---------------------------------|
 A|-----------0------------0--------|
 E|---------------------------------|

Won't you l[Em]ook my way once be[D]fore you go and my ey[G]es will say what you
[Bm]ought to know
Well I've been t[Am]hinkin' about you day and n[D7]ight...and I don't [Am]know if
it'll work out ri[D7]ght...but so[Am]mehow I think that it just mi[D7]ght...if we[G-F-E] try.
 
 E|----5-------4--------2--------0-------2------------0-|
 B|--------2-------2--------2--------2------2----2--2---|
 G|-------2-2-----2-2------2-2------2-----------4-4-----|
 D|-----------------------------------------------------|
 A|----0-------0--------0--------0----------0-------0---|
 E|-----------------------------------------------------|

Faces Come and Faces Go in Circular Rotation
 
 E|---------------------------0-----|
 B|------2----2-----2------2--------|
 G|----4---4-----4-----4------------|
 D|---------------------------------|
 A|-----------0------------0--------|
 E|---------------------------------|
 E|----5-------4--------2--------0-------2------------0-|
 B|--------2-------2--------2--------2------2----2--2---|
 G|-------2-2-----2-2------2-2------2-----------4-4-----|
 D|-----------------------------------------------------|
 A|----0-------0--------0--------0----------0-------0---|
 E|-----------------------------------------------------|

But Something yearns within to grow beyond infatuation
 
 E|---------------------------0-----|
 B|------2----2-----2------2--------|
 G|----4---4-----4-----4------------|
 D|---------------------------------|
 A|-----------0------------0--------|
 E|---------------------------------|

Won't you lo[Em]ok my way once bef[D]ore you go and my e[G]yes will say what you
ou[Bm]ght to know
Well you've got me[Am] standin' deaf and b[D7]lind...cause I see l[Am]ove as just a
state of m[D7]ind...and who k[Am]nows what it is that we might f[D7]ind...if we t[G-----]ry.
Bridge:
Y[Gm]ou're walking a dif[C]ferent direction from[Gm] most people I've [C]met.
[Am]You're givin' me sig[D]ns of affection I[Am] don't usually ge[D----]t.
[Em]I don't want you to ple[Bm]dge your future the f[Am]uture's [D]not yours to g[G]ive.
J[Em]ust stand there a l[Bm]ittle longer and [C-]let [Em] me watc[Am]h while you [F---E]live.
 
 E|----5-------4--------2--------0-------2----------0---------0-|
 B|--------2-------2--------2--------2------2--2--2-----2--2-2--|
 G|-------2-2-----2-2------2-2------2---------4-4-----4---4-4---|
 D|-------------------------------------------------------------|
 A|----0-------0--------0--------0----------0-----0-----0----0--|
 E|-------------------------------------------------------------|
 E|----5-------4--------2--------0-------2------------0-|
 B|--------2-------2--------2--------2------2----2--2---|
 G|-------2-2-----2-2------2-2------2-----------4-4-----|
 D|-----------------------------------------------------|
 A|----0-------0--------0--------0----------0-------0---|
 E|-----------------------------------------------------|

Coz?when I see you on the streets I Lose my concentration
 
 E|---------------------------0-----|
 B|------2----2-----2------2--------|
 G|----4---4-----4-----4------------|
 D|---------------------------------|
 A|-----------0------------0--------|
 E|---------------------------------|
 E|----5-------4--------2--------0-------2------------0-|
 B|--------2-------2--------2--------2------2----2--2---|
 G|-------2-2-----2-2------2-2------2-----------4-4-----|
 D|-----------------------------------------------------|
 A|----0-------0--------0--------0----------0-------0---|
 E|-----------------------------------------------------|

And Just the thought we might be Creates anticipation
 
 E|---------------------------0-----|
 B|------2----2-----2------2--------|
 G|----4---4-----4-----4------------|
 D|---------------------------------|
 A|-----------0------------0--------|
 E|---------------------------------|

Won't you[Em] look my way once be[D]fore you go and my e[G]yes will say what you
o[Bm]ught to know.
We[Am]ll I've been thinkin' about[D] you day and night.[Am]..and I don't know if
it'll work out ri[D7]ght...but s[Am]omehow I think that it just m[D7]ight,if we t[G-F-E]ry..
som[Am]ehow I think that it just [D7]might,if we try[G-F-E]..
Am D7 G C-G?
Yes somehow I think that it just might,if we try?.
~End~

Important: The song above is NOT stored on the Chordie server. The original song is hosted at www.guitaretab.com. Chordie works as a search engine and provides on-the-fly formatting. Chordie does not index songs against artists'/composers' will. To remove this song please click here.

Text color:
Chord color:
Chord grids: 
Font size:    
Page size: 

Am Bm C D D7 Em G Gm
Rate #1 of 3 versions

Jango Player

Login - add to songbook

SHARE PAGE  




You need to log in to post comments