Guitar Tabs, Chords and Lyrics
Server problems seems to be fixed. Chordie has been experiencing problems with songs disappearing. These issues now seems to be fixed, but still verifying the fix. If you find anything strange, please email admin@chordie.com.


Mandolin Man and His Secret   Donovan

 
 ---------------------------------------------------------------------------

 


 The Mandolin Man and His Secret - Donovan


 

 
 ---------------------------------------------------------------------------

 


 


 Tuning: Standard but tune guitar down 1 semitone to match recording.


 


 This is muuch easier than the other TAB I've seen EVERYWHERE (!) - sits under the


 fingers really well.


 


 Intro/Verse


 

 
 e|------------------------------------------------------------------ |
 B|--------------------0-------------------------------0------------- |
 G|-------0-------0---0---0-------0-------0-------0---0---0-------0-- |
 D|-0-------2-------4---4---2-------0-------2-------4---4---2-------- |
 A|------------------------------------------------------------------ |
 E|-----3-------3---------------3-------3-------3---------------3---- |

 


 


 [1] [2] [3] [4] [1] [2] [3] [4] [1] [2] [3] [4] [1] [2] [3] [4] 


 


 Chorus


 

 
 e|-------------------------------------------------------------------|
 B|----------------------------------------------------0--------------|
 G|-------0-------0-----------------------0-------0---0---0--------0--|
 D|-----2-------0-------2-----------0-------2-------4---4---2---------|
 A|-3-------2-------0-------0-2-3-------------------------------------|
 E|-------------------------------------3-------3---------------3-----|


Important: The song above is NOT stored on the Chordie server. The original song is hosted at www.guitaretab.com. Chordie works as a search engine and provides on-the-fly formatting. Chordie does not index songs against artists'/composers' will. To remove this song please click here.

This song is displayed as text-only. Transposing and tuning is only available for chordpro-songs.
Rate #1 of 2 versions

Login - add to songbook

SHARE PAGE  




You need to log in to post comments