Guitar Tabs, Chords and Lyrics
Major upgrade!! After one year development the new version of Chordie is now online! Please give feedback.


Queen of the Highway  The Doors

[Em] [Am] [G] [C] [Cm] [F] [F#] [Gm]  
 
 |-----| |-----| |--3--| |--3--| |--1--| |--1--| |--2--| |--1--|
 |--2--| |-----| |--2--| |--3--| |--1--| |--3--| |--4--| |--3--|
 |--2--| |--2--| |-----| |--2--| |--3--| |--3--| |--4--| |--3--|
 |-----| |--2--| |-----| |-----| |--3--| |--2--| |--3--| |--1--|
 |-----| |--1--| |-----| |--1--| |--2--| |--1--| |--2--| |--1--|
 |-----| |-----| |--3--| |-----| |--1--| |--1--| |--2--| |--1--|

[B7]|--2--|
|--2--|
|--1--|
|--2--|
|--0--|
|--4--|
[Em] she was a [Am]princes
q[G]ueen of the highway
[C] a sign on the [Cm]road said
[G]take us to madre
[F] no one can save her
[F#]save the blind tiger
[Gm] he was a monster
[Cm]black dressed in leather
[Gm] she was a princes
q[F]ueen of the highway[B7]
[Em] now they are w[Am]edded
[G]she is a good girl
[C] naked as [Cm]children
[Gm]out in a meadow
[F] naked as children
[F#]wild as can be
[Gm]soon to have offsprings
[Cm]start it all over[Gm]
[F]start it all over[B7]
[Em] american [Am]boy, am[G]erican girl
[C] most beautiful [Cm]people [Gm]in the world
[F] son of frontier [F#]indian swirl
[Gm]dancing to the midnight w[Cm]hirlpool
[Gm]naked, w[F]armless
i [Gm]hope it can continue just a [Cm]little while longer
[Gm] a [F]little while longer[F#]
[Gm]she was a [Cm]friend yeah
 
 |----------------------------|
 |----------------------------|
 |-------2-----2--------------|
 |----------0-----0-----2-----|
 |-------------------0--------|
 |----------------------------|

she was a prince-es
well that's pretty much about that song... enjoy it :D

Important: The song above is NOT stored on the Chordie server. The original song is hosted at www.guitaretab.com. Chordie works as a search engine and provides on-the-fly formatting. Chordie does not index songs against artists'/composers' will. To remove this song please click here.

Text color:
Chord color:
Chord grids: 
Font size:    
Page size: 

Am B7 C Cm Em F F# G Gm
Rate #1 of 5 versions

Login - add to songbook

SHARE PAGE  



You need to log in to post comments