Guitar Tabs, Chords and Lyrics
Server problems seems to be fixed. Chordie has been experiencing problems with songs disappearing. These issues now seems to be fixed, but still verifying the fix. If you find anything strange, please email admin@chordie.com.


Cars Hiss by My Window  The Doors

The Doors
Cars Hiss by my Window, off LA Woman
Standard Tuning, transcribed for one guitar. don't use a pick
Tabbed by: the amazing Steve Dubuque
Intro
 
 ---------|
 ---------|
 ---------|

---0h1h2-|
 
 -2-------|
 ---------|

[E7]  
 
 ----------------------------------------------------------|
 --------2----0----------------------2----0----------------|
 --------2----0h1--------------------2----0h1--------------|
 --------2----0-------0h1h2----------2----0---------0h1h2--|
 --------2h4--------2----------------2h4----------2--------|
 --0--0-----------0-0----------0--0------------0--0--------|

[A7]  
 
 ------------0------------------------------0------------------|
 ------6/7---2------------------------6/7---2------------------|
 ------5/6---0-------0h1h2------------5/6---0-------0h1h2------|
 ------6/7---------2------------------6/7---------2------------|
 -0--0----------0--0-------------0--0----------0--0------------|
 --------------------------------------------------------------|

E7 (short)
 
 --------------------------------------------------x---------|
 --------2----0----------------------2----0--------x---------|
 --------2----0h1--------------------2----0h1------x---------|
 --------2----0-------0h1h2----------2----0--------x---------|
 --------2h4--------2----------------2h4-----------x---------|
 --0--0-----------0-0----------0--0------------0-0-x---------|

(kinda palm-mute/slap)
MCC (Major chord change...B7, A7, E7, (A), E7, B7)
[B7] [A7]  
 
 -2-4p2p0-------------------3-------0------------x--------------|
 -2-------2--4p3p2---------------------3----2h3--x--------------|
 -2----------------3-2-------------------0-------x--2h4p2p0-----|
 -x------------------------------2/4--------2----x-----------/6-|
 ------------------------------0--------------------------------|
 ---------------------------------------------------------------|

[E7] [(A)] [E7] [B7]  
 
 ---------------------------------------------------------------|
 ----------------------------------------0---0------------------|
 ----------------------------------------2---0------------------|
 --0h2-0h2-0h2--0----0--------2----------1---0h1h2--------------|
 ------------------2---0-----------0h1h2---2--------------------|
 -0----------------------3--0----0------------------------------|

Intro
E7 x2
The [A7]cars hiss by my window
Like the waves down on the beach
[E7]  
The [A7]cars hiss by my window
Like the waves down on the beach
E7 (short)
[MCC]I got this girl beside me
But she's out of reach
[E7]  
H[E7]eadlights thru my window
Shining on the wall
E7 (w/fill)
 
 -------------------------------------3~--0------0-------------------|
 --------2----0------------------------------3b----0-----------------|
 --------2----0h1------------------------------------2/4p2p0---------|
 --------2----0-------0h1h2------------------0---------------2-------|
 --------2h4--------2-------------2/4--------------------------------|
 --0--0-----------0-0----------0--0------------------0---------------|

[A7]Headlights thru my window
Shining on the wall
[MCC]Can't hear my baby
Tho' I call and call
Solo
 
 --------3~--0------0--------------------------|
 ---------------3b----0------------------------|
 -----------------------2/4p2p0----------------|
 ---------------0---------------2--------------|
 ----2/4---------------------------------------|
 -0--0------------------0----------------------| 


Important: The song above is NOT stored on the Chordie server. The original song is hosted at www.guitaretab.com. Chordie works as a search engine and provides on-the-fly formatting. Chordie does not index songs against artists'/composers' will. To remove this song please click here.

Text color:
Chord color:
Chord grids: 
Font size:    
Page size: 

A7 B7 E7
Rate #1 of 4 versions

Login - add to songbook

SHARE PAGE  




You need to log in to post comments