Guitar Tabs, Chords and Lyrics
Server problems seems to be fixed. Chordie has been experiencing problems with songs disappearing. These issues now seems to be fixed, but still verifying the fix. If you find anything strange, please email admin@chordie.com.


The Unknown Soldier  The Doors

 
 -------------------------------------------------------------------------------

The Unknown Soldier - The Doors
 
 -------------------------------------------------------------------------------

Tabbed by: Kurt James Harrison
E-mail: metalhead_guy@hotmail.com
Intro:
 
 e|--5--4--3----3--4--5----5--4--3-----------|
 B|--5--4--3----3--4--5----5--4--3-----------|
 G|--6--5--4----4--5--6----6--5--4-----------|
 D|--7--6--5----5--6--7----7--6--5-----------|
 A|--7--6--5----5--6--7----7--6--5-----------|
 E|--5--4--3----3--4--5----5--4--3-----------|

let ring...
[A]Breakfast where the [A]news is read
[A]Television childr[A]en fed
[G]Unborn living, living, dead
[F]Bull[F]et [C]strikes [C]the [D]helm[D]et's [A]hea[A]d
[F] [F] [C] [C] [D] [D] [A] [A]  
Chorus:
 
 e|--5---5---5--4--3---3---3--4--5---5---5--4--3---3---3--4--5----------------|
 B|---5---5---5--4--3---3---3--4--5---5---5--4--3---3---3--4------------------|
 G|----6---6---------4---4---------6---6---------4---4------------------------|
 D|-----7---7---------5---5---------7---7---------5---5-----------------------|
 A|---------------------------------------------------------------------------|
 E|---------------------------------------------------------------------------|

let ring...
N.C.
Hut, hut, hut ho hee up
Hut, hut, hut ho hee up
Hut, hut, hut ho hee up
Comp'nee, halt
Present arms
Make a grave for the unknown soldier
 
 e|-----------------------------------5--4--3-|
 B|-----------------------------------5--4--3-|
 G|-----------------------------------6--5--4-|
 D|-----------------------------------7--6--5-|
 A|-----------------------------------7--6--5-|
 E|-----------------------------------5--4--3-|

let ring...
Nestled in your hollow shoulder
 
 e|-----------------------------3--4--5-|
 B|-----------------------------3--4--5-|
 G|-----------------------------4--5--6-|
 D|-----------------------------5--6--7-|
 A|-----------------------------5--6--7-|
 E|-----------------------------3--4--5-|

let ring...
The unknown soldier
 
 e|-----------------5--4--3-|
 B|-----------------5--4--3-|
 G|-----------------6--5--4-|
 D|-----------------7--6--5-|
 A|-----------------7--6--5-|
 E|-----------------5--4--3-|

let ring...
[A]Break[A]fast [A]where [A]the [A]news [A]is [A]read
[A]Tel[A]evis[A]ion ch[A]ildr[A]en [A]fed
[F]Bull[F]et [C]strikes [C]the [D]hel[D]met's [A]hea[A]d
[F] [F] [C] [C] [D] [D] [A] [A]  
Chorus:
 
 e|--5---5---5--4--3---3---3--4--5---5---5--4--3---3---3--4--|
 B|---5---5---5--4--3---3---3--4--5---5---5--4--3---3---3--4-|
 G|----6---6---------4---4---------6---6---------4---4-------|
 D|-----7---7---------5---5---------7---7---------5---5------|
 A|----------------------------------------------------------|
 E|----------------------------------------------------------|

Solo:
 
 e|-----5-7-7br-5-------5-7-7br-5------3-5-5br-3-------3-5-5br-3-|
 B|-5-7-----------7-5-7------------3-5-----------5-3-5-----------|
 G|--------------------------------------------------------------|
 D|--------------------------------------------------------------|
 A|--------------------------------------------------------------|
 E|--------------------------------------------------------------|
 e|-- ---5h7-7br-5-------5-7-7br-5------3-5-5br-3-------3-5-5br-3-|
 B|-/5-7-----------7-5h7------------3-5-----------5-3-5-----------|
 G|---------------------------------------------------------------|
 D|---------------------------------------------------------------|
 A|---------------------------------------------------------------|
 E|---------------------------------------------------------------|

Fade out...
************************************
| / slide up
| h hammer-on
| br Bend release
************************************

Important: The song above is NOT stored on the Chordie server. The original song is hosted at www.guitaretab.com. Chordie works as a search engine and provides on-the-fly formatting. Chordie does not index songs against artists'/composers' will. To remove this song please click here.

Text color:
Chord color:
Chord grids: 
Font size:    
Page size: 

A C D F G
Rate #1 of 6 versions

Login - add to songbook

SHARE PAGE  




You need to log in to post comments