Guitar Tabs, Chords and Lyrics
Major upgrade!! After one year development the new version of Chordie is now online! Please give feedback.


You're Lost Little Girl  The Doors

Your're lost little Girl - The Doors
Tabbed by: Ron Kober
Email: snuts@web.de
Duration Legend
 
 ---------------

W - whole
H - half
Q - quarter
E - 8th
S - 16th
T - 32nd
X - 64th
. - note dotted
|-n-| - n-tuplets
Tablature Legend
 
 ----------------

x - dead note
h - hammer on
p - pull off
Intro:
[Em] [C] [Em] [C]  
You'r[Em]e lost littl[C]e girl,[Em] [C]
You're [Em]lost little [C]girl,[Em] [C]
Em* C G F A
You're lost, tell me who are you
[//]  
[Em]Q E Q E Q [C]Q E E E Q E [Em]Q E Q E Q [C]Q E E
E Q
 
 E||-------0--2-------0----|----------------0-------|-------0--2-------0----|-------------------0----|
 B||-------0----------0----|--1-------0--1----------|-------0----------0----|--1----1--1--0--1-------|
 G||-------0---------------|--0---------------------|-------0---------------|--0---------------------|
 D||-------2---------------|--2---------------------|-------2---------------|--2---------------------|
 A||-------2---------------|--3---------------------|-------2---------------|--3---------------------|
 E||--0--------------------|------------------------|--0--------------------|------------------------|

[//] Em* C G F A
Q E Q E Q E E E Q E Q E E E Q E Q Q Q Q
Q
 
 |-------0--2-------0----|--0--------0------------|--3--------3------------|--1---------5---------|
 |-------0----------0----|-----1----------1-------|-----3----------3-------|-------1---------5----|
 |-------0---------------|--------0----------0----|--------4----------4----|----------------------|
 |-------2---------------|------------------------|------------------------|----------------------|
 |-------2---------------|------------------------|------------------------|----------------------|
 |--0--------------------|------------------------|------------------------|----------------------|

Chorus:
[D]Think that you [Gm]know what to [D]do[Gm]
Imp[D]ossible [Gm]yes, but it's [D]true
I [G]think that you [Bm]know what [F]to do [A]Yeah!
[D]Sure that you [Gm]know what you [D]do
// The melody always varies a little. Simply improvising something.
[D]Q E E E E Q
 
 |-------2--0--0--2-------|
 |-------------3----------|
 |------------------------|
 |--0---------------------|
 |------------------------|
 |------------------------|

[Gm]E E E Q E Q [D]Q E E E E Q [Gm]Q E Q E Q
 
 --3--------3------------|-------2--0--0--2-------|--3-------3------------|
 -----3----------3-------|--3----3--3-----3-------|--3-------3----3-------|
 --------3----------3----|--2---------------------|-------3----------3----|
 ------------------------|--0---------------------|-----------------------|
 ------------------------|------------------------|-----------------------|
 ------------------------|------------------------|-----------------------|

[D]Q Q E E Q [Gm]E E E Q E Q [D]Q Q E E Q
 
 -------2----0--2--L----|--3--------3------------|-------2----0--2--L----|
 -------3----3--3-------|-----3----------3-------|-------3-------3-------|
 --2--------------------|--------3----------3----|--2--------------------|
 --0--------------------|------------------------|--0--------------------|
 -----------------------|------------------------|-----------------------|
 -----------------------|------------------------|-----------------------|

[Gm]Q E Q E Q [D]E E Q S S S S S S S S
 
 --3-------3------------|--------2----2h-3p-2p-0------------|
 --3------------3-------|-----3------------------2h-3p-2p-0-|
 -------3----------3----|--2--------------------------------|
 -----------------------|-----------------------------------|
 -----------------------|-----------------------------------|
 -----------------------|-----------------------------------|

Q Q Q Q [G]E E E E E E Q [Bm]E E E E E E Q
 
 -------2----0---------|--3--------3--3----------|--2--------2--2----------|
 --3-------------------|-----3-----------3-------|-----3-----------3-------|
 --2-------------------|--------4-----------4----|--------4-----------4----|
 ----------------------|-------------------------|-------------------------|
 ----------------------|-------------------------|-------------------------|
 ----------------------|-------------------------|-------------------------|

[F]E E E E E E Q [A]E E E Q E Q [D]Q Q E E Q
 
 --1--------1--1----------|--5--------5------------|-------2----0--2-------|
 -----1-----------1-------|-----5----------5-------|--3----3----3----------|
 --------2-----------2----|--------6----------6----|--2--------------------|
 -------------------------|------------------------|--0--------------------|
 -------------------------|------------------------|-----------------------|
 -------------------------|------------------------|-----------------------|

[Gm]E E E Q E Q [D]E E Q S S S S S S S S
 
 --3--------3------------|--------2----2h-3p-2p-0------------|
 -----3----------3-------|-----3------------------2h-3p-2p-0-|
 --------3----------3----|-----------------------------------|
 ------------------------|-----------------------------------|
 ------------------------|-----------------------------------|
 ------------------------|-----------------------------------|

Q Q Q Q
 
 -------2----0---------|
 --3-------------------|
 --2-------------------|
 ----------------------|
 ----------------------|
 ----------------------|

You're [Em]lost little [C]girl,[Em] [C]
You're [Em]lost little [C]girl,[Em] [C]
Em* C G F A
You're lost tell me who are you
[//] Em* C G F A
Q E Q E Q Q E E E Q E E E E Q E Q Q Q Q
Q
 
 |-------0--2-------0----|----------------0-------|--3--------3------------|--1---------5---------|
 |-------0----------0----|--1-------0--1----------|-----3----------3-------|-------1---------5----|
 |-------0---------------|--0---------------------|--------4---------------|----------------------|
 |-------2---------------|--2---------------------|------------------------|----------------------|
 |-------2---------------|--3---------------------|------------------------|----------------------|
 |--0--------------------|------------------------|------------------------|----------------------|

// SOLO: yeah i know, that is not really the guitar solo, but it sounds good. See it
as an easier alternative.
[Em] Q Q E E Q [C]Q Q E E Q
 
 |--12----12-----x--12-------|--8---------x--8-------|
 |--12----12-----x--12-------|--8---------x--8-------|
 |--12----12-----x--12-------|--9---------x--9-------|
 |---------------------------|-----------------------|
 |---------------------------|-----------------------|
 |---------------------------|-----------------------|

[Em]Q Q E E Q [C]Q E E Q Q
 
 --12----12-----x--12--12----|--8----x--8--8----8----|
 --12----12-----x--12--12----|--8----x--8--8----8----|
 --12----12-----x--12--12----|--9----x--9--9----9----|
 ----------------------------|-----------------------|
 ----------------------------|-----------------------|
 ----------------------------|-----------------------|

[Em]Q Q E E Q [C]Q E E E E Q [G]Q E E E E Q
 
 --12----12-----x--12--12----|--8----x--8--8--x--8----|--3----x--3--3-----3----|
 --12----12-----x--12--12----|--8----x--8--8--x--8----|--3----x--3-----3--3----|
 --12----12-----x--12--12----|--9----x--9--9--x--9----|--4----x--4--------4----|
 ----------------------------|------------------------|------------------------|
 ----------------------------|------------------------|------------------------|
 ----------------------------|------------------------|------------------------|

[F]Q Q [A]Q Q
 
 --1----1----5----5----|
 --1----1----5----5----|
 --2----2----6----6----|
 ----------------------|
 ----------------------|
 ----------------------|

Chorus:
[D]Think that you [Gm]know what to [D]do[Gm]
Imp[D]ossible [Gm]yes, but it's [D]true
I [G]think that you [Bm]know what [F]to do [A]Yeah!
[D]Sure that you [Gm]know what you [D]do
[//]  
[D]Q Q E E Q [Gm]Q E Q E Q
 
 |-------2----0--2-------|--3-------3------------|
 |-------3----3--3-------|--3-------3----3-------|
 |--2--------------------|-------3----------3----|
 |--0--------------------|-----------------------|
 |-----------------------|-----------------------|
 |-----------------------|-----------------------|

[D]Q Q E E Q [Gm]E E E Q E Q [D]Q Q E E Q
 
 -------2----0--2-------|--3--------3------------|-------2----0--2-------|
 -------3----3----------|-----3----------3-------|-------3----3--3-------|
 --2--------------------|--------3----------3----|-----------------------|
 --0--------------------|------------------------|--0--------------------|
 -----------------------|------------------------|-----------------------|
 -----------------------|------------------------|-----------------------|

[Gm]Q E Q E Q [D]Q Q E E Q [Gm]Q E Q E Q
 
 --3--------------------|-------2----0--2-------|--3-------3------------|
 --3-------3-------3----|--3---------3--3-------|--3-------3-------3----|
 -------3-------3-------|--2--------------------|-------3-------3-------|
 -----------------------|--0--------------------|-----------------------|
 -----------------------|-----------------------|-----------------------|
 -----------------------|-----------------------|-----------------------|

[D]E E Q S S S S S S S S Q Q Q Q
 
 ----------2----2h-3p-2p-0------------|-------2----0---------|
 -------3------------------2h-3p-2p-0-|--3-------------------|
 ---2---------------------------------|--2-------------------|
 -------------------------------------|----------------------|
 -------------------------------------|----------------------|
 -------------------------------------|----------------------|

[G]E E E E E E E E [Bm]E E E E E E E E [F]E E E E E E Q
 
 --3--------3--3-----------|--2--------2--2-----------|--1--------1--1----------|
 -----3-----------3-----3--|-----3-----------3-----3--|-----1-----------1-------|
 --------4-----------4-----|--------4-----------4-----|--------2-----------2----|
 --------------------------|--------------------------|-------------------------|
 --------------------------|--------------------------|-------------------------|
 --------------------------|--------------------------|-------------------------|

[D]E E E E E E Q [D]Q Q E E Q [Gm]H E Q E
 
 --5--------5--------5----|--2----2----0--2-------|--3-----------3-------|
 -----5--------5----------|--3----3----3--3-------|--3-----------3-------|
 --------6--------6-------|--2----2-------2-------|--3--------3----------|
 -------------------------|--0--------------------|----------------------|
 -------------------------|-----------------------|----------------------|
 -------------------------|-----------------------|----------------------|

E E Q S S S S S S S S Q Q Q Q
 
 --------2----2h-3p-2p-0------------|-------2----0---------|
 -----3------------------2h-3p-2p-0-|--3-------------------|
 --2--------------------------------|--2-------------------|
 -----------------------------------|----------------------|
 -----------------------------------|----------------------|
 -----------------------------------|----------------------|

You're [Em]lost little [C]girl,[Em] [C]
You're [Em]lost little [C]girl[Em] [C]
You're [Em9]lost
[//]  
[Em9]Q Q Q Q
 
 |-------2--------------|
 |-------0--------------|
 |-------0--------------|
 |-------2--------------|
 |-------2--------------|
 |--0-------------------|


Important: The song above is NOT stored on the Chordie server. The original song is hosted at www.guitaretab.com. Chordie works as a search engine and provides on-the-fly formatting. Chordie does not index songs against artists'/composers' will. To remove this song please click here.

Text color:
Chord color:
Chord grids: 
Font size:    
Page size: 

A Bm C D Em F G Gm
Rate #1 of 5 versions

Login - add to songbook

SHARE PAGE  




You need to log in to post comments