Guitar Tabs, Chords and Lyrics
Major upgrade!! After one year development the new version of Chordie is now online! Please give feedback.


Reno  Doug Supernaw

CD: Red & Rio Grande
Track 3
Tabbed by Neil Crane
Capo 3rd
fill 1
 
 --------------------| steel guitar part
 -7------------------|
 ---9\7---6/ 9\4\2/4-|
 -------7-7/11\5-----|
 --------------------|
 --------------------|

fill 2
 
 -----------|
 -----------|
 -----------|
 -----------|
 ---------5-|
 -3-3-5/7---|

fill 3
 
 -----------------|
 -3-2---3-2-------| string part
 -----2-----2-----|
 -------------2-4-|
 -----------------|
 -----------------|

fill 4
 
 -12-10----------|
 -------12-10----|
 -------------12-|
 ----------------|
 ----------------|
 ----------------|

***********************************************
intro
D A G D * A G *begin fill 1
 
 ---0h2-2-------------------------3-----------2---------------------3-|
 ---3---3-----2h3p2-----------0---------0-------3-----2---------0---0-| rake last chord
 ---------2---------------0h2---0-----0-----2-----------2-----0---0-0-|
 -0-----------------2---0-----------0-----0---------2-------0-------0-|
 -----------0-------------------------------------0-------------------|
 ---------------------3-----------------------------------3-----------|

Couldn't [D]roll me a [A]seven if you [G]gave me loaded dice
[D] I couldn't draw a [A]hand if I [G]sat here all night
Scared [D]money bad [A]whiskey, there [G]ain't no way to win
D A G *play fill 2
This ain't the first time, it's the way it's always been
D Bm A *play fill 3
You know the Lady's a lot like Reno
[D] She ain't got a [G]heart and she don't [A]care when your down
D Bm A *play fill 3
Just like the lights of a casino
[Em] She'll pull you in and [A]play with you awhile
Em *play fill 4
But there ain't no way to win
G A *begin break
I know, she's a lot like Reno
break
[D] [A] [G] [D] [A] [G]  
 
 -------------------------------------------------| steel guitar part
 --7-------------------7/8\7----------------------|
 ----9\7---6/ 9\4\2/4--------9\7-7---7/9--6-6/7\4-|
 --------7-7/11\5------------------7-9/11-7-7/9\5-|
 -------------------------------------------------|
 -------------------------------------------------|

[D] They're both out to [A]break you, take [G]everything you got
When you [D]finally win the [A]hand there ain't [G]nothing in the pot
A [D]gamble that I'm [A]taking but [G]either one I choose
D A G *play fill 2
Lady or Reno either way I lose
D Bm A *play fill 3
You know the Lady's a lot like Reno
[D] She ain't got a [G]heart and she don't [A]care when your down
D Bm A *play fill 3
Just like the lights of a casino
[Em] She'll pull you in and [A]play with you awhile
Em *play fill 4
But there ain't no way to win
G A *begin solo
I know, she's a lot like Reno
solo
[D] [A] [G]  
 
 -----------------------------------------|
 -----------------------------------------|
 -------------------7---9b11---7-----7-7/-|
 -------7h9p7-7-7/9---9------9---7/9------|
 -5-7/9-----------------------------------|
 -----------------------------------------|

[D] [A] [G]  
 
 -10----7-----------------------------------7-7----10-10------|
 ----10---7--10---7\-10-7------------8-8-----------------8-7b-|
 ---------------7---------7-9---7-/7-----/7-----/7---------7b-|
 -----------------------------9-------------------------------|
 -------------------------------------------------------------|
 -------------------------------------------------------------|

D Bm A *play fill 3
You know the Lady's a lot like Reno
[D] She ain't got a [G]heart and she don't [A]care when your down
D Bm A *play fill 3
Just like the lights of a casino
[Em] She'll pull you in and [A]play with you awhile
Em *play fill 4
But there ain't no way to win
G A *begin outro
I know, she's a lot like Reno
outro
D * A G *begin fill 1
 
 -----0h2p0-----------------------3-|
 -----------3-----2-----------0-----|
 ---2---------------2-----0h2---0---|
 -0-------------2-----2---0---------|
 -------------0---------------------|
 -----------------------3-----------|

Couldn't [D]roll me a [A]seven if you [G]gave me loaded dice[D]
 
 -------------2-------------------------------------3-------2-|
 ---------------3--------2----------------0-----------0-----3-| rake on last chord
 -----------2--------------2--------0h2-----------0-----2---2-|
 ---------0------------2----------------------------------0-0-|
 --------------------0----------------------------------------|
 ---------------------------------3---------------------------|


Important: The song above is NOT stored on the Chordie server. The original song is hosted at www.guitaretab.com. Chordie works as a search engine and provides on-the-fly formatting. Chordie does not index songs against artists'/composers' will. To remove this song please click here.

Text color:
Chord color:
Chord grids: 
Font size:    
Page size: 

A D Em G
Rate #2 of 6 versions

Jango Player

Login - add to songbook

SHARE PAGE  




You need to log in to post comments