Guitar Tabs, Chords and Lyrics
Major upgrade!! After one year development the new version of Chordie is now online! Please give feedback.


Pangea   Dover

 
 -----|-----|
 -----|-----|
 -----|-----|
 --8--|--3--|
 --8--|--3--|
 --6--|--1--|

 


 [n] [n]  


 Riff1


 

 
 -------|-------|-----|
 -------|-------|-----|
 -------|-------|-----|
 --8-8--|--4-4--|--2--|
 --8-8--|--4-4--|--1--|
 --6-6--|--2-2--|--1--|

 


 [n]  


 Riff2


 

 
 ---------|---------|
 ---------|---------|
 ---------|--10-10--|
 --8-8-8--|--10-10--|
 --8-8-8--|--8--8---|
 --6-6-6--|---------|

 


 


 Riff3


 

 
 -----|-----|-----|-----|
 -----|-----|-----|-----|
 -----|-----|-----|-----|
 --8--|--4--|--2--|--2--|
 --8--|--4--|--2--|--2--|
 --6--|--2--|--1--|--1--|

 


 pm


 


 Riff4


 

 
 ---------|---------|---------|-------|---------|-------|---------|---------|
 ---------|---------|---------|-------|---------|-------|---------|---------|
 ---------|--10-10--|---------|-------|---------|-------|---------|--10-10--|
 --8-8-8--|--10-10--|--8-8-8--|--4-4--|--8-8-8--|--4-4--|--8-8-8--|--10-10--|
 --8-8-8--|--8--8---|--8-8-8--|--4-4--|--8-8-8--|--4-4--|--8-8-8--|--8--8---|
 --6-6-6--|---------|--6-6-6--|--2-2--|--6-6-6--|--2-2--|--6-6-6--|---------|

 


 


 Riff5


 

 
 -----------|-------|-----|
 -----------|-------|-----|
 -----------|-------|-----|
 --8-----8--|--4-4--|--2--|
 --8-----8--|--4-4--|--1--|
 --6-----6--|--2-2--|--1--|


Important: The song above is NOT stored on the Chordie server. The original song is hosted at www.guitaretab.com. Chordie works as a search engine and provides on-the-fly formatting. Chordie does not index songs against artists'/composers' will. To remove this song please click here.

This song is displayed as text-only. Transposing and tuning is only available for chordpro-songs.
Rate #1 of 3 versions

Jango Player

Login - add to songbook

SHARE PAGE  




You need to log in to post comments