Guitar Tabs, Chords and Lyrics
Major upgrade!! After one year development the new version of Chordie is now online! Please give feedback.


Almost Forgot Myself  Doves

"Almost Forgot Myself" by DOVES. ( "Some Cities" - 2005 )
intro : D
 
 e--2----2---2---2-------2---2---2---------------------------------------------------------|
 B--3----3---3---3-------3---3---3---------------------------------------------------------|
 G--2----2---2---2------2----2---2---------------------------------------------------------|
 D-----------------------------------------------------------------------------------------|
 A-----------------------------------------------------------------4--4---4-5-4---0-2-2----|
 E-----------------------------------2--2----0---2----2-----0-2--5-------------------------|
 e----------------------------------------|
 B----------------------------------------|
 G----------------------------------------|
 D----------------------------------------|
 A--0-2---4-2--0--2---2-0-2--4-2---0------|
 E-------------------------------------2--|

To be played with the bass melody : F#m - A (sus4) -E - B (x2)
F#m............. - Bmin - C#min (x2)
[F#m] So [Bmin]close...
You're wasted ag[F#m]ain
I [Bmin]know, someh[D]ow...[Bmin]
I lost mys[F#m]elf... [E] aga[D]in[-] [Dsus4] [-] [D]
[A] Making me [E]high agai[D]n[-] [Dsus4] [-] [D]
[A] I almost forg[E]ot myself aga[D]in[-] [Dsus4] [-] [D]
[A] It hits me so [E]hard, It kills me aga[D]in[Bmin] [-] [A] [-] [E]
F#m............. - Bmin - C#min (x1)
Today
[F#m] So [Bmin]close
Yet you're wasted ag[F#m]ain
I [Bmin]know, some[D]how...[Bmin]
We'll find ourse[F#min]lves...[E]
I don't know, I don't kno[D]w[-] [Dsus4] [-] [D]
[A] Then we'll be [E]high agai[D-Dsus4-D]n
[A] I almost forgo[E]t myself th[D-Dsus4-D]ere
[A] It hits you so [E]hard, And kills aga[D-Dsus4-D]in[Bmin]
[F#m] [-] [A] [(sus4)] [-E] [-] [B] 
 
 F#m - A (sus4) -E - B - D - Dsus4 - D

[A] I almost forg[E]ot myself aga[D-Dsus4-D]in
[A] I almost forg[E]ot myself the[D-Dsus4-D]re
[A] It's hitting me [E]hard, It moves me ag[D-Dsus4-D]ain
Aga[Bmin]in...[D]
Bmin D F#min.
Again....

Important: The song above is NOT stored on the Chordie server. The original song is hosted at www.guitaretab.com. Chordie works as a search engine and provides on-the-fly formatting. Chordie does not index songs against artists'/composers' will. To remove this song please click here.

Text color:
Chord color:
Chord grids: 
Font size:    
Page size: 

A B Bmin D Dsus4 E F#m F#min
Rate #1 of 4 versions

Login - add to songbook

SHARE PAGE  




You need to log in to post comments