Guitar Tabs, Chords and Lyrics
Major upgrade!! After one year development the new version of Chordie is now online! Please give feedback.


A Better Way  downhere

A Better Way ? Downhere
Capo 1 so everything is actually a half-step higher (G=G#, E=F etc)
INTRO:
[G] [D] [G] [C]  
 
 e|--------------------------------------|
 B|-0-0-0-0-----------0-0-0-0--1-1-1-1-3-|
 G|--0-0-0-0-2-2-2-2---0-0-0-0?-0-0-0----|
 D|-----------4-4-4-4--------------------|
 A|--------------------------------------|
 E|--------------------------------------|

[G] [D] [Em7] [C]  
 
 e|--------------------------------------|
 B|-0-0-0-0------------------3-1-1-1-1-3-|
 G|--0-0-0-0-2-2-2-2--0-0-0-0---0-0-0----|
 D|-----------4-4-4-4--2-2-2-------------|
 A|--------------------------------------|
 E|--------------------------------------|

Verse 1
[G]I?m not alo[D]ne
[G]I really b[C]elieve
[G]You never go [D]
[Em7]You never le[C]ave
[G]Here and [D]now
[G]You always[C] stay
[G]?I love you? could not be s[D]aid
a better [G]way
Chorus:
[C]It?s everything You?ve [D/A]promised
[D](there?s no greater love than [Am7]this)
From prophets un[G]til today
(a man laying down his li[C]fe for his friends)
Your sacrifice has [D/A]spoken
(You [D]gave everything)
And ?I [Am7]love you? could [G/B]not be s[D]aid
a better [G]way
Verse 2
I am forgiven
I clearly see
It?s why You came
to do all You did for me
Trading earth with heaven
You took my place
?I love you? could not be said
a better way
livelier part:
 
 e|----77-----77-----77-----------------|
 B|-------------------------------------| 2X
 G|-9-9--11-11--12-12--12-12---16/9-9---|
 D|-------------------------------------| listen to song for
 A|-7-7--9--9?--10-10--10-10---14/7-7---| strum patterns
 E|-------------------------------------|

(capo is still in effect here, so while this shows
E F# G B, it?s actually F G G# C in the song)
Verse 3
Because You redeem
I know what?s to come
Everything I could lose here
You?ve already won
So You have my surrender
with passion obey
?I love you? could not be said
a better way

Important: The song above is NOT stored on the Chordie server. The original song is hosted at www.guitaretab.com. Chordie works as a search engine and provides on-the-fly formatting. Chordie does not index songs against artists'/composers' will. To remove this song please click here.

Text color:
Chord color:
Chord grids: 
Font size:    
Page size: 

Am7 C D Em7 G G/B
Rate #1 of 4 versions

Jango Player

Login - add to songbook

SHARE PAGE  



You need to log in to post comments