Guitar Tabs, Chords and Lyrics
Server problems seems to be fixed. Chordie has been experiencing problems with songs disappearing. These issues now seems to be fixed, but still verifying the fix. If you find anything strange, please email admin@chordie.com.


Afterlife  Dream Theater

AFTERLIFE
(From the 1989 Album WHEN DREAM AND DAY UNITE)
Words by Charlie Dominici
Music by Dream Theater
Arranged by Dream Theater
Transcribed by John Grivas
Gtr I (E A D G B E) - 'Distorted-Rythum'
Gtr II (E A D G B E) - 'Clean'
Gtr III (E A D G B E) - 'Distorted-Lead'
Q=150
[4/4] Gtr I
 
 PM-------------------------------

S S S S S S S S S S S S S S S S
 
 ||----------------------------------|
 ||o---------------------------------|
 ||----------------------------------|
 ||--------------------------6-6-----|
 ||o-4-4-4-4-4-4-7-7-4-4-4-4-----5-5-|
 ||----------------------------------|
 -----------------------------------------------------------------|

S S S S S S S S S S S S S S S S S S S S S S S S S S S S S S S S
 
 |---------------------------------|-----------------------------------|
 |---------------------------------|-----------------------------------|
 |---------------------------------|-----------------------------------|
 |-----------------7-7-----6-6-----|-------------------------6-6-------|
 |-5-5-9-9-5-5-5-5-----5-5-----5-5-|-4-4-4-4-4-4-7-7-4-4-4-4-----4-4---|
 |---------------------------------|-----------------------------------|
 PM-------------------------------

Q. E +Q Q 3x S S S S S S S S S S S S S S S S
 
 |-----------------||---------------------------------|
 |----------------o||---------------------------------|
 |-----------------||---------------------------------|
 |-----------------||-------------------------6-6-----|
 |-9----7-(7)--6--o||-4-4-4-4-4-4-7-7-4-4-4-4-----5-5-|
 |-7----5-(5)--4---||---------------------------------|
 -------------------------------|

S S S S S S S S S S S S S S S S
 
 |-----------------------------------
 |-----------------------------------
 |-----------------------------------
 |-----------------7-7-----6-6-------
 |-5-5-9-9-5-5-5-5-----5-5-----5-5---
 |-----------------------------------

PM--|
E E E E E E E E +E E +E E Q Q
 
 |-----------------|-------------------|
 |-----------------|-------------------|
 |-------4---4---4-|-(4)---------------|
 |-------4---4---4-|-(4)---------7--6--|
 |-4-5-4-2---2---2-|-(2)-4-(4)-2-5--4--|
 |-----------------|-----2-(2)-0-------|
 PM----------------------------| PM--------------------------|

S S S S S S S S S S S S S S S S S S S S S S S S S S S S S S S S 3x
 
 ||----------------------------------|-----------------------------------||
 ||o---------------------------------|----------------------------------o||
 ||----------------------------------|-----------------------------------||
 ||--------------------------6-6-----|-----------------7-7-----6-6-------||
 ||o-4-4-4-4-4-4-7-7-4-4-4-4-----5-5-|-5-5-9-9-5-5-5-5-----5-5-----5-5--o||
 ||----------------------------------|-----------------------------------||
 PM--| PM--| PM--| PM--|

E E E E E +E Q E E Q E E E E H E S S Q E S S Q E S S E E
 
 |-----------------|----------------|---------------|--------------------|
 |-----------------|----------------|---------------|--------------------|
 |-------4-4-(4)-4-|-4-4-4--7---7---|-6----------6--|-------6--------6-4-|
 |-------4-4-(4)-4-|-4-4-4--7---7---|-6----------6--|-------6--------6-4-|
 |-4-5-4-2-2-(2)-2-|-2-2-2--5---5---|-4----4-4-4-4--|-4-4-4-4--4-4-4-4-2-|
 |-----------------|----------------|---------------|--------------------|
 PM--| PM--| PM--| PM--|

+E E Q E S S Q E S S Q E S S E E +E E Q E S S Q
 
 |-------------------|--------------------|-------------------|
 |-------------------|--------------------|-------------------|
 |-(4)-4-4--------4--|-------4--------4-6-|-(6)-6-6--------6--|
 |-(4)-4-4--------4--|-------4--------4-6-|-(6)-6-6--------6--|
 |-(2)-2-2--2-2-2-2--|-2-2-2-2--2-2-2-2-4-|-(4)-4-4--4-4-4-4--|
 |-------------------|--------------------|-------------------|
 PM------------| PM--| PM----------------|

S S S S S S S S E E E E +E E Q E S S Q S S E E S S E S S E E
 
 |-------------------------|-------------------|------------------------|
 |-------------------------|-------------------|------------------------|
 |-----------------6-----4-|-(4)-4-4--------4--|---------------------6--|
 |-----------------6-----4-|-(4)-4-4--------4--|---------------------6--|
 |-4-4-4-4-4-4-4-4-4-------|-------------------|---------------------4--|
 |-----------------------4-|-(4)-4-4--4-4-4-4--|-4-4-4-4-4-4-2-4-2-0----|
 PM--| PM--| PM--| PM--|

+E E Q E S S Q E S S Q E S S E E +E E Q E S S Q
 
 |-------------------|--------------------|-------------------|
 |-------------------|--------------------|-------------------|
 |-(6)-6-6--------6--|-------6--------6-8-|-(8)-4-4--------4--|
 |-(6)-6-6--------6--|-------6--------6-8-|-(8)-4-4--------4--|
 |-(4)-4-4--4-4-4-4--|-4-4-4-4--4-4-4-4-6-|-(6)-2-2--4-4-4-4--|
 |-------------------|--------------------|-------------------|
 PM--| PM--| PM--| PM--| PM--|

E S S Q E S S E E +E E Q E S S Q E S S Q E S S E E
 
 |--------------------|-------------------|---------------------|
 |--------------------|-------------------|---------------------|
 |-------4--------4-6-|-(6)-6-6--------6--|-------6--------6-8--|
 |-------4--------4-6-|-(6)-6-6--------6--|-------6--------6-8--|
 |-4-4-4-4--4-4-4-4-4-|-(4)-4-4--4-4-4-4--|-4-4-4-4--4-4-4-4-6--|
 |--------------------|-------------------|---------------------|
 PM--| PM--| PM--| PM--|

+E E Q E S S Q E S S Q E S S E E +E E Q E S S Q
 
 |-------------------|--------------------|-------------------|
 |-------------------|--------------------|-------------------|
 |-(8)-4-4--------4--|-------4--------4-4-|-(4)-4-4--------4--|
 |-(8)-4-4--------4--|-------4--------4-2-|-(2)-2-2--------2--|
 |-(6)-2-2--4-4-4-4--|-4-4-4-4--4-4-4-4-2-|-(2)-2-2--2-2-2-2--|
 |-------------------|--------------------|-------------------|

Gtr III
W W
 
 |--------------------|---------------------|
 |--------------------|---------------------|
 |--------------------|---------------------|
 |--------------------|---------------------|
 |--------------------|---------------------|
 |--------------------|---------------------|

|
| Gtr I
 
 | PM--| PM--| PM--|

| E S S Q E S S E E +E +E Q E S S Q
 
 |--------------------|---------------------|
 |--------------------|---------------------|
 |-------4--------4-2-|-(2)-(2)-2--------2--|
 |-------2--------2-2-|-(2)-(2)-2--------2--|
 |-2-2-2-2--2-2-2-2-0-|-(0)-(0)-0--0-0-0-0--|
 |--------------------|---------------------|

H Q E E +H E E +E E
 
 |---------------\4-|-(4)----4-5---(5)-7-|
 |------------------|--------------------|
 |------------------|--------------------|
 |------------------|--------------------|
 |------------------|--------------------|
 |------------------|--------------------|

|
| PM PM PM PM PM--|
| E E E E E E E E +H E S S Q
 
 |------------------|--------------------|
 |------------------|--------------------|
 |---2---2---2----6-|-(6)-----------6----|
 |---2---2---2----6-|-(6)-----------6----|
 |-0-0-0-0-0-0-0--4-|-(4)----4-4-4--4----|
 |------------------|--------------------|

\7
Q +Q +E S S E +E Q E E E S S E S S H +Q. E
 
 |--------------------------|----------------------|---------------------------|
 |-7-----(7)--(7)-----------|----------------------|---------------------------|
 |----------------8-9-8-(8)-|----------------------|-[9]--------([9])-------/8-|
 |--------------------------|--9-------------------|---------------------------|
 |--------------------------|------9-7-6---6---6-7-|---------------------------|
 |--------------------------|------------9---9-----|---------------------------|

|
 
 | PM--| PM---| PM--| PM---| PM----|

| E S S Q E S S E E +H E S S Q E S S Q E S S E E
 
 |--------------------------|----------------------|---------------------------|
 |--------------------------|----------------------|---------------------------|
 |--------6-----------6--4--|-(4)------------4-----|---------4------------4--6-|
 |--------6-----------6--4--|-(4)------------4-----|---------4------------4--6-|
 |-4-4-4--4----4--4-4-4--2--|-(2)------2-2-2-2-----|--2--2-2-2----2---2-2-2--4-|
 |--------------------------|----------------------|---------------------------|

+E E +E E +Q +Q
 
 |-----------------------------|
 |-----------12-(12)-----(12)--|
 |-(8)-9-(9)-------------------|
 |-----------------------------|
 |-----------------------------|
 |-----------------------------|

|
| PM---|
| +H E S S Q
 
 |-----------------------------|
 |-----------------------------|
 |-(6)---------------------6---|
 |-(6)---------------------6---|
 |-(4)------------4--4-4---4---|
 |-----------------------------|

S S S S S S S S E S S S +S +E +W
 
 |-11-0-12-0-14-0-16-0-17b19-16-14------------------|---------------------|
 |---------------------------------17b19==(17)-(17)-|-(17)----------------|
 |--------------------------------------------------|---------------------|
 |--------------------------------------------------|---------------------|
 |--------------------------------------------------|---------------------|
 |--------------------------------------------------|---------------------|

|
 
 | PM---------------| PM--|

| S S S S S S S S E E E E +E E Q E S S Q
 
 |--------------------------------------------------|---------------------|
 |--------------------------------------------------|---------------------|
 |----------------------6------------------------4--|--(4)-4-4--------4---|
 |----------------------6------------------------4--|--(4)-4-4--------4---|
 |--4-4--4-4--4-4--4-4--4---------------------------|---------------------|
 |-----------------------------------------------4--|--(4)-4-4--4-4-4-4---|

[/] ~~~~~
+H +Q. E +W W
 
 |----------------------------|-()---------------|--------------------|
 |-(17)-----------(17)-----------|---------------------|--------------------|
 |-------------------------------|---------------------|--------------------|
 |-------------------------------|---------------------|--------------------|
 |-------------------------------|---------------------|--------------------|
 |-------------------------------|---------------------|--------------------|

|
 
 | PM--------------------| PM--| PM--| PM--|

| S S E E S S E S S E E +E E Q E S S Q E S S Q E S S E E
 
 |-------------------------------|---------------------|--------------------|
 |-------------------------------|---------------------|--------------------|
 |----------------------------6--|--(6)--6-6--------6--|-------6--------6-8-|
 |----------------------------6--|--(6)--6-6--------6--|-------6--------6-8-|
 |----------------------------4--|--(4)--4-4--4-4-4-4--|-4-4-4-4--4-4-4-4-6-|
 |---4--4-4-4-4-4---2--4-2-0-----|---------------------|--------------------|

Gtr I
 
 PM--| PM--| PM--| PM--|

+E E Q E S S Q E S S Q E S S E E +E E Q E S S Q
 
 |-------------------|--------------------|-------------------|
 |-------------------|--------------------|-------------------|
 |-(8)-4-4--------4--|-------4--------4-6-|-(6)-6-6--------6--|
 |-(8)-4-4--------4--|-------4--------4-6-|-(6)-6-6--------6--|
 |-(6)-2-2--4-4-4-4--|-4-4-4-4--4-4-4-4-4-|-(4)-4-4--4-4-4-4--|
 |-------------------|--------------------|-------------------|
 PM--| PM--| PM--| PM--| PM--|

E S S Q E S S E E +E E Q E S S Q E S S Q E S S E E
 
 |--------------------|-------------------|---------------------|
 |--------------------|-------------------|---------------------|
 |-------6--------6-8-|-(8)-4-4--------4--|-------4--------4-4--|
 |-------6--------6-8-|-(8)-4-4--------4--|-------4--------4-2--|
 |-4-4-4-4--4-4-4-4-6-|-(6)-2-2--4-4-4-4--|-4-4-4-4--4-4-4-4-2--|
 |--------------------|-------------------|---------------------|
 PM--| PM--| PM--|

E E Q E S S Q E S S Q E S S E E
 
 |--7----------------|--------------------|
 |-------------------|--------------------|
 |-(4)-4-4--------4--|-------4--------4-2-|
 |-(2)-2-2--------2--|-------2--------2-2-|
 |-(2)-2-2--2-2-2-2--|-2-2-2-2--2-2-2-2-0-|
 |-------------------|--------------------|

PM--| PM PM PM
+E E Q E S S Q E E E E E E +Q
 
 |-------------------|------------------|
 |-------------------|------------------|
 |-(2)-2-2--------2--|---2---2---2-(2)--|
 |-(2)-2-2--------2--|---2---2---2-(2)--|
 |-(0)-0-0--0-0-0-0--|-0-0-0-0-0-0-(0)--|
 |-------------------|------------------|
 PM--------------------------------------------------------------|

S S S S S S S S S S S S S S S S S S S S S S S S S S S S S S S S 3x
 
 ||----------------------------------|-----------------------------------||
 ||o---------------------------------|----------------------------------o||
 ||----------------------------------|-----------------------------------||
 ||--------------------------6-6-----|-----------------7-7-----6-6-------||
 ||o-4-4-4-4-4-4-7-7-4-4-4-4-----4-4-|-5-5-9-9-5-5-5-5-----5-5-----5-5--o||
 ||----------------------------------|-----------------------------------||
 PM--------------------------------------------------------------|

S S S S S S S S S S S S S S S S S S S S S S S S S S S S S S S S
 
 |---------------------------------|---------------------------------|
 |---------------------------------|---------------------------------|
 |---------------------------------|---------------------------------|
 |---------------------------------|---------------------------------|
 |-4-4-4-4-4-4-2-2-2-2-2-2-0-0-0-0-|-0-0-----------------------------|
 |---------------------------------|-----4-4-4-4-4-4-2-2-2-2-0-0-0-0-|
 PM----| PM----| PM----| PM----|

H S S S S Q S S S S Q S S S S E E +E E Q S S S S Q
 
 |-----------------|------------------------|----------------------|
 |-----------------|------------------------|----------------------|
 |-6------------6--|---------6----------6-8-|-(8)-4-4----------4---|
 |-6------------6--|---------6----------6-8-|-(8)-4-4----------4---|
 |-4----4-4-4-4-4--|-4-4-4-4-4--4-4-4-4-4-6-|-(6)-2-2--4-4-4-4-4---|
 |-----------------|------------------------|----------------------|
 PM----| PM----| PM----| PM----|

S S S S Q E E E E +E E Q S S S S Q S S S S Q S S S S E E
 
 |--------------------|---------------------|-------------------------|
 |--------------------|---------------------|-------------------------|
 |---------4----4---6-|-(6)-6-6----------6--|---------6----------6-8--|
 |---------4----4---6-|-(6)-6-6----------6--|---------6----------6-8--|
 |-4-4-4-4-4----4---4-|-(4)-4-4--4-4-4-4-4--|-4-4-4-4-4--4-4-4-4-4-6--|
 |--------------------|---------------------|-------------------------|
 PM---------------

+E E Q S S S S S S S S
 
 |--------------------------|
 |----------5-4-----5-4-----|
 |-(8)-4-4------6-4-----6-4-|
 |-(8)-4-4------------------|
 |-(6)-2-2------------------|
 |--------------------------|
 -------------------------| PM----|

S S S S S S S S S S S S S S E +E E Q S S S S Q
 
 |-------------------------------|---------------------|
 |-5-4-----5-4-------------------|---------------------|
 |-----6-4-----6-4-------------4-|-(4)-4-4----------4--|
 |-----------------6-4---------2-|-(2)-2-2----------2--|
 |---------------------7-6-4---2-|-(2)-2-2--2-2-2-2-2--|
 |-------------------------------|---------------------|
 PM----| PM----| PM----| PM PM PM PM

S S S S Q S S S S E E +E E Q S S S S Q E E E E E E E E
 
 |------------------------|---------------------|-----------------|
 |------------------------|---------------------|-----------------|
 |---------4----------4-2-|-(2)-2-2----------2--|---2---2---2-----|
 |---------2----------2-2-|-(2)-2-2----------2--|---2---2---2---6-|
 |-2-2-2-2-2--2-2-2-2-2-0-|-(0)-0-0--0-0-0-0-0--|-0-0-0-0-0-0-0-4-|
 |------------------------|---------------------|-----------------|

+H +Q. E +H +Q. E +H +Q. E +E E E E +E E E E
 
 |----------------|----------------|----------------|---------------------|
 |----------------|----------------|----------------|---------------------|
 |----------------|----------------|----------------|---------------------|
 |-(6)----(6)---8-|-(8)----(8)---9-|-(9)----(9)-----|---------7-(7)-6-----|
 |-(4)----(4)---6-|-(6)----(6)---7-|-(7)----(7)---5-|-(5)-7-9---------7-9-|
 |----------------|----------------|----------------|---------------------|

PM| PM| PM| PM ~~~
+Q E E E E E E E E E E E E E E
 
 |--------------------|--------------------|
 |--------------------|--------------------|
 |--------------------|--------------------|
 |------11------------|-12-----11----------|
 |-(9)-----9-9-14-9-9-|----9-9----9-14---8-|
 |--------------------|--------------------|

~~~~~ PM| PM| PM| PM
+Q E E E E E E E E E E E E E E
 
 |-------------------|-------------------|
 |-------------------|-------------------|
 |-------------------|-------------------|
 |------11-----9-----|-12-----11---9---9-|
 |-(8)-----8-8---8-8-|----8-8----8-----7-|
 |-------------------|-------------------|

PM PM
[+E] [E] [E] [E] [E] [E] [E] [E] [E] [E] [E] [E] [E] [E] [E] [E]  
 
 |--------------------|------------------|
 |--------------------|------------------|
 |-----------------11s|=13---------------|
 |-(9)-9-9-----9------|----9---7---9---9-|
 |-(7)-7-7---7-7-7--9s|=11---------7---6-|
 |--------------------|------------------|

+Q. E +Q. E +E E E E +E E E E
 
 |-----------------|---------------------|
 |-----------------|---------------------|
 |-----------------|---------------------|
 |-(9)-------------|---------7-(7)-6-----|
 |-(6)---9-(9)---5-|-(5)-7-9---------7-9-|
 |-------7-(7)-----|---------------------|
 PM---------------------------------------------------------| ~

+Q E S S S S S S S S S S S S S S S S S S S S S S S S E
 
 |-------------------------------|---------------------------------------|
 |-------------------------------|---------------------------------------|
 |-------------------------------|---------------------------------------|
 |------11-----------------------|-12-12-----11-11---------------11-11---|
 |-(9)-----9-9-9-9-14-14-9-9-9-9-|-------9-9-------9-9-14-14-9-9-------8-|
 |-------------------------------|---------------------------------------|
 ~~~ PM---------------------

+Q E S S S S S S S S S S
 
 |-----------------------------|
 |-----------------------------|
 |-----------------------------|
 |------11---------9-9---------|
 |-(8)-----8-8-8-8-----8-8-8-8-|
 |-----------------------------|
 -------------------------------| PM PM|

S S S S S S S S S S S S S S E +E E E E E E E E
 
 |-----------------------------------|--------------------|
 |-----------------------------------|--------------------|
 |-----------------------------------|--------------------|
 |-12-12---------11-11-----9-9-----9-|-(9)-9-9-----9------|
 |-------8-8-8-8-------8-8-----8-8-7-|-(7)-7-7---7-7-7-7--|
 |-----------------------------------|--------------------|

PM| PM PM
E E E E E E E E +H +Q. E +E E E E E E E E
 
 |-----------------|----------------|-------------------|
 |-----------------|----------------|-------------------|
 |-----------------|----------------|-------------------|
 |-9-----9---9---9-|-(9)----(9)-----|---------7-6-------|
 |-7-7-7-7-7-7-7-6-|-(6)----(6)---5-|-(5)-7-9-----9-7-5-|
 |-----------------|----------------|-------------------|
 PM--------------------------------------------------------------|

S S S S S S S S S S S S S S S S S S S S S S S S S S S S S S S S 3x
 
 ||----------------------------------|-----------------------------------||
 ||o---------------------------------|----------------------------------o||
 ||----------------------------------|-----------------------------------||
 ||--------------------------6-6-----|-----------------7-7-----6-6-------||
 ||o-4-4-4-4-4-4-7-7-4-4-4-4-----4-4-|-5-5-9-9-5-5-5-5-----5-5-----5-5--o||
 ||----------------------------------|-----------------------------------||

[5/4] [4/4]  
 
 PM--| PM------------| PM----|

E E E E E E E E E E E E E E E E Q H S S S S Q
 
 |-----------------|--------------------|-----------------|
 |-----------------|--------------------|-----------------|
 |-------4---------|---------7---7------|-6------------6--|
 |-------4---------|---------7---7------|-6------------6--|
 |-4-5-4-2---2-0---|---------5---5------|-4----4-4-4-4-4--|
 |---------------4-|-2-0-2-4------------|-----------------|
 PM----| PM----| PM----| PM----|

S S S S Q S S S S E E +E E Q S S S S Q S S S S Q E E E E
 
 |------------------------|---------------------|---------------------|
 |------------------------|---------------------|---------------------|
 |---------6----------6-8-|-(8)-4-4----------4--|---------4----4---6--|
 |---------6----------6-8-|-(8)-4-4----------4--|---------4----4---6--|
 |-4-4-4-4-4--4-4-4-4-4-6-|-(6)-2-2--4-4-4-4-4--|-4-4-4-4-4----4---4--|
 |------------------------|---------------------|---------------------|
 PM----| PM----| PM----| PM----|

+E E Q S S S S Q S S S S Q S S S S E E +E E Q S S S S Q
 
 |---------------------|------------------------|-----------------------|
 |---------------------|------------------------|-----------------------|
 |-(6)-6-6----------6--|---------6----------6-8-|-(8)-4-4----------4----|
 |-(6)-6-6----------6--|---------6----------6-8-|-(8)-4-4----------4----|
 |-(4)-4-4--4-4-4-4-4--|-4-4-4-4-4--4-4-4-4-4-6-|-(6)-2-2--4-4-4-4-4----|
 |---------------------|------------------------|-----------------------|
 PM----| PM----| PM----| PM----| PM----|

S S S S Q S S S S E E +E E Q S S S S Q S S S S Q S S S S E E
 
 |------------------------|---------------------|-------------------------|
 |------------------------|---------------------|-------------------------|
 |---------4----------4-4-|-(4)-4-4----------4--|---------4----------4-2--|
 |---------4----------4-2-|-(2)-2-2----------2--|---------2----------2-2--|
 |-4-4-4-4-4--4-4-4-4-4-2-|-(2)-2-2--2-2-2-2-2--|-2-2-2-2-2--2-2-2-2-2-0--|
 |------------------------|---------------------|-------------------------|

PM----| PM PM PM PM
+E E Q S S S S Q E E E E E E E E +H +Q. E +H +Q. E
 
 |---------------------|-----------------|----------------|----------------|
 |---------------------|-----------------|----------------|----------------|
 |-(2)-2-2----------2--|---2---2---2-----|----------------|----------------|
 |-(2)-2-2----------2--|---2---2---2---6-|-(6)----(6)---8-|-(8)----(8)---9-|
 |-(0)-0-0--0-0-0-0-0--|-0-0-0-0-0-0-0-4-|-(4)----(4)---6-|-(6)----(6)---7-|
 |---------------------|-----------------|----------------|----------------|

+H +Q. E +E E E E +E E E E
 
 |----------------|---------------------|
 |----------------|---------------------|
 |----------------|---------------------|
 |-(9)----(9)-----|---------7-(7)-6-----|
 |-(7)----(7)---5-|-(5)-7-9---------7-9-|
 |----------------|---------------------|

PM| PM| PM| PM
+Q E E E E E E E E E E E E E E
 
 |--------------------|--------------------|
 |--------------------|--------------------|
 |--------------------|--------------------|
 |------11------------|-12-----11----------|
 |-(9)-----9-9-14-9-9-|----9-9----9-14---8-|
 |--------------------|--------------------|

PM| PM| PM| PM
+Q E E E E E E E E E E E E E E
 
 |-------------------|-------------------|
 |-------------------|-------------------|
 |-------------------|-------------------|
 |------11-----9-----|-12-----11---9---9-|
 |-(8)-----8-8---8-8-|----8-8----8-----7-|
 |-------------------|-------------------|

PM PM
[+E] [E] [E] [E] [E] [E] [E] [E] [E] [E] [E] [E] [E] [E] [E] [E]  
 
 |--------------------|------------------|
 |--------------------|------------------|
 |-----------------11s|=13---------------|
 |-(9)-9-9-----9------|----9---7---9---9-|
 |-(7)-7-7---7-7-7--9s|=11---------7---6-|
 |--------------------|------------------|
 PM--------------------|

+Q. E +Q. E +E E E E +E E E E +Q E S S S S S S S S S S
 
 |-----------------|---------------------|--------------------------------|
 |-----------------|---------------------|--------------------------------|
 |-----------------|---------------------|--------------------------------|
 |-(9)-------------|---------7-(7)-6-----|------11------------------------|
 |-(6)---9-(9)---5-|-(5)-7-9---------7-9-|-(9)-----9-9-9-9-14-14-9-9-9-9--|
 |-------7-(7)-----|---------------------|--------------------------------|
 PM------------------------------| ~~~~~~~~ PM----------------|

S S S S S S S S S S S S S S E +Q E S S S S E S S S S
 
 |---------------------------------------|---------------------------|
 |---------------------------------------|---------------------------|
 |---------------------------------------|---------------------------|
 |-12-12-----11-11---------------11-11---|------11---------9---------|
 |-------9-9-------9-9-14-14-9-9-------8-|-(8)-----8-8-8-8---8-8-8-8-|
 |---------------------------------------|---------------------------|
 PM---------------------------| PM PM| PM| PM PM

S S S S S S S S S S S S S S E +E E E E E E E E E E E E E E E E
 
 |-----------------------------------|-------------------|-----------------|
 |-----------------------------------|-------------------|-----------------|
 |-----------------------------------|-------------------|-----------------|
 |-12-12---------11-11-----9-9-----9-|-(9)-9-9-----9-----|-9-----9---9---9-|
 |-------8-8-8-8-------8-8-----8-8-7-|-(7)-7-7---7-7-7-7-|-7-7-7-7-7-7-7-6-|
 |-----------------------------------|-------------------|-----------------|

+H +Q. E +E E E E E E E E W +W
 
 |----------------|-------------------|----------|--------|
 |----------------|-------------------|----------|--------|
 |----------------|-------------------|----------|--------|
 |-(9)----(9)-----|---------7-6-------|----------|--------|
 |-(6)----(6)---5-|-(5)-7-9-----9-7-5-|-4--------|-(4)----|
 |----------------|-------------------|----------|--------|

Gtr II
T
E E E E +E E +Q W E E E E +E E +Q W
 
 |---------------------|-----------|---------------------|-7----|
 |--------------7-(7)--|-14--------|--------------7-(7)--|------|
 |--------9-(9)--------|-----------|--------9-(9)--------|------|
 |------7--------------|-----------|------7--------------|------|
 |---11----------------|-----------|---11----------------|------|
 |-9-------------------|-----------|-7-------------------|------|

T
E E E E +E E +Q W E E E E +E E +E E +W
 
 |-----------------9-(9)--|-14--------|----------------9-(9)-9-|-(9)----|
 |---------12-(12)--------|-----------|--------12-(12)---------|--------|
 |-------9----------------|-----------|------9-----------------|--------|
 |----13------------------|-----------|---13-------------------|--------|
 |------------------------|-----------|-9----------------------|--------|
 |-11---------------------|-----------|------------------------|--------|

Gtr III
~~~~~~~~~~~~~~~~~~ ~~~~~~~~~
Q. E +Q Q +H. +Q Q. E +E E Q +W
 
 |--------------7--|-(7)------(7)--|-----------------|--------|
 |-\4----5-(5)-----|---------------|-7---------------|--------|
 |-----------------|---------------|------6-(6)---4--|-(4)----|
 |-----------------|---------------|------------6----|--------|
 |-----------------|---------------|-----------------|--------|
 |-----------------|---------------|-----------------|--------|

~~~ ~~~~~~~~~~~ ~~~~~~~~~
+Q. E +E E +E E +E E +Q +H Q. E +Q Q +H. E E
 
 |---------------------|-----7-(7)--(7)----|----------------|------------\4-|
 |-------------4-(4)-5-|-(5)---------------|-7----5-(5)--4--|-(4)-----------|
 |-(4)-----------------|-------------------|----------------|---------------|
 |-------6-(6)---------|-------------------|----------------|---------------|
 |---------------------|-------------------|----------------|---------------|
 |---------------------|-------------------|----------------|---------------|

~ ~~~~~~~~~~~~~~~~
H S S S S S S S S S S +E +Q +Q. E
 
 |-9----7-12------19---------|--------------------------------------|
 |-------------12----12---12-|-12-17b19==(17)---(17)--(17)-------12-|
 |---------------------------|--------------------------------------|
 |---------------------------|--------------------------------------|
 |---------------------------|--------------------------------------|
 |---------------------------|--------------------------------------|

|
| Gtr I
 
 | PM-----| PM------------| PM---|

| H E S S Q E S S Q E S S E E
 
 |---------------------------|--------------------------------------|
 |---------------------------|--------------------------------------|
 |-6---------------6---------|--------------------6------------6--4-|
 |-6---------------6---------|--------------------6------------6--4-|
 |-4----4----4--4--4---------|--4----------4--4---4-----4--4-4-4--2-|
 |---------------------------|--------------------------------------|

S S S S S S S S S S S S S S S S
 
 |-/19--17-16-17\-17-16-14-16\-16-14-12-14\-14-12-11-12\-|
 |-------------------------------------------------------|
 |-------------------------------------------------------|
 |-------------------------------------------------------|
 |-------------------------------------------------------|
 |-------------------------------------------------------|

|
 
 | PM------|

| +H E S S Q
 
 |-------------------------------------------------------|
 |-------------------------------------------------------|
 |--(4)--------------------------------------4-----------|
 |--(4)--------------------------------------4-----------|
 |--(2)-------------------------4-----4--4---4-----------|
 |-------------------------------------------------------|

~~~~~~~ ~~~~~~~~~~~
S S E Q +Q. E +H +E S S S E S
 
 |-------------------------16b19==|=(16)----(16)----------19----|
 |-/12-10-9---7--(7)--------------|--------------19-17-16----16-|
 |--------------------------------|-----------------------------|
 |--------------------------------|-----------------------------|
 |--------------------------------|-----------------------------|
 |--------------------------------|-----------------------------|

|
 
 | PM-----| PM---| PM----|

| E S S Q E S S E E +H E S S Q
 
 |--------------------------------|-----------------------------|
 |--------------------------------|-----------------------------|
 |------------4----------4--4-----|--(4)----------------4-------|
 |------------4----------4--2-----|--(2)----------------2-------|
 |---4----4-4-4---4--4-4-4--2-----|--(2)------2---2--2--2-------|
 |--------------------------------|-----------------------------|

H +E S S E S S
 
 |-19--------(19)-------16----16\--|
 |----------------19-17----19------|
 |---------------------------------|
 |---------------------------------|
 |---------------------------------|
 |---------------------------------|

|
 
 | PM--| PM----|

| E S S Q E S S E E
 
 |---------------------------------|
 |---------------------------------|
 |--------4--------------4--2------|
 |--------2--------------2--2------|
 |--2-2-2-2----2---2--2--2--0------|
 |---------------------------------|

S S S S S S S S S S S S S S S S
 
 |---/14-16-19-14-16-19-14-16-19-14-12-14-16-12-14-|
 |-------------------------------------------------|
 |-------------------------------------------------|
 |-------------------------------------------------|
 |-------------------------------------------------|
 |-------------------------------------------------|

|
 
 | PM------|

| H E S S Q
 
 |-------------------------------------------------|
 |-------------------------------------------------|
 |-2------------------------------------2----------|
 |-2------------------------------------2----------|
 |-0------------------------0-----0--0--0----------|
 |-------------------------------------------------|

S S S S S S S S S S S S S S S S
 
 |-16-12-14-16-19-16-14-19-16-14-16-14----14-------|
 |-------------------------------------17----17-16-|
 |-------------------------------------------------|
 |-------------------------------------------------|
 |-------------------------------------------------|
 |-------------------------------------------------|

|
 
 | PM------| PM------|

| E S S Q E S S E E
 
 |-------------------------------------------------|
 |-------------------------------------------------|
 |--------------7-----------------------7-----6----|
 |--------------7-----------------------7-----6----|
 |--5-----5--5--5-----------5-----5--5--5-----4----|
 |-------------------------------------------------|

E E +Q E S S E S S
 
 |-------------------------------|
 |-14-16-(16)---12---------------|
 |-----------------13------------|
 |--------------------14-13-11-9-|
 |-------------------------------|
 |-------------------------------|

|
| PM PM---|
| Q E E E S S Q
 
 |-------------------------------|
 |-------------------------------|
 |--6---------6-----------6------|
 |--6---------6-----------6------|
 |--4------4--4--4--4--4--4------|
 |-------------------------------|

S S E E S S +H S E S S S E S E S S S E
 
 |---------------------------|---------------------------7-|
 |---------------------------|-----------------------7-5---|
 |---------------------------|-------------4---6---4-------|
 |---------------------------|---------4-2---4-------------|
 |-6-4-2---------------------|-----4-2---------------------|
 |---------7-5-4-(4)---------|--2--------------------------|

|
 
 | PM----| PM---| PM----|

| E S S Q E S S E E +Q Q E S S Q
 
 |---------------------------|-----------------------------|
 |---------------------------|-----------------------------|
 |---------6-------------6-4-|-(4)-----4-------------4-----|
 |---------6-------------6-4-|-(4)-----4-------------4-----|
 |-4---4-4-4------4--4-4-4-2-|-(2)-----2-----4---4-4-4-----|
 |---------------------------|-----------------------------|

S E S S S E Q S S S S
 
 |----------------12---14\-----0-9-11-|
 |----------12-10---------------------|
 |---11---9---------------------------|
 |-9----------------------------------|
 |------------------------------------|
 |------------------------------------|

|
| PM| PM---| PM|
| S S S S S S S S E E E E
 
 |------------------------------------|
 |------------------------------------|
 |-------------------------------4----|
 |-------------------------------2----|
 |-4--4---4--4--4----4--4--------2----|
 |------------------------------------|

S S S S S S S S S S S S S S S S
 
 |--0--11-12-0-9-11-0-11-12-0-12-14-0-11-12-0--|
 |---------------------------------------------|
 |---------------------------------------------|
 |---------------------------------------------|
 |---------------------------------------------|
 |---------------------------------------------|

|
| PM-----|
| +Q Q E S S Q
 
 |---------------------------------------------|
 |---------------------------------------------|
 |-(4)---------4--------------------4----------|
 |-(2)---------2--------------------2----------|
 |-(2)---------2----------2----2--2-2----------|
 |---------------------------------------------|

S S S S S S S S S S S S S S S S
 
 |-12-14-0-11-12-0-12-14-0-14-16-0-12-14-0-14-|
 |--------------------------------------------|
 |--------------------------------------------|
 |--------------------------------------------|
 |--------------------------------------------|
 |--------------------------------------------|

|
 
 | PM-----| PM------|

| E S S Q E S S E E
 
 |--------------------------------------------|
 |--------------------------------------------|
 |-------------4--------------------4----2----|
 |-------------2--------------------2----2----|
 |--2----2--2--2---------2-----2-2--2----0----|
 |--------------------------------------------|

S S S S S S S S S S S S S S S S
 
 |-16--0-16-17-0-14-16-0-16-17-0-17-19-0-16-17-|
 |---------------------------------------------|
 |---------------------------------------------|
 |---------------------------------------------|
 |---------------------------------------------|
 |---------------------------------------------|

|
| PM-----|
| +Q Q E S S Q
 
 |---------------------------------------------|
 |---------------------------------------------|
 |-(2)---------2---------------------2---------|
 |-(2)---------2---------------------2---------|
 |-(0)---------0----------0----0--0--0---------|
 |---------------------------------------------|

S S S S S S S S S S S S S S E
 
 |-19-17-16-17-19-16-17-19-16-17-19-17-16-17-14-|
 |----------------------------------------------|
 |----------------------------------------------|
 |----------------------------------------------|
 |----------------------------------------------|
 |----------------------------------------------|

|
 
 | PM------| PM------|

| E S S Q E S S Q
 
 |----------------------------------------------|
 |----------------------------------------------|
 |--------------7-----------------------7-------|
 |--------------7-----------------------7-------|
 |--5-----5--5--5-----------5-----5--5--5-------|
 |----------------------------------------------|

S S S S S S S S S S S S S S S S
 
 |-17p14----14-17p14----14-17p14----14-17p14----14--|
 |-------14----------14----------14----------14-----|
 |--------------------------------------------------|
 |--------------------------------------------------|
 |--------------------------------------------------|
 |--------------------------------------------------|

|
 
 | PM---| PM---| PM---|

| E E E E E E E E
 
 |--------------------------------------------------|
 |--------------------------------------------------|
 |--------------------------------------------------|
 |-------------11-----------------------------------|
 |--9-----9-----------9-----9----14-----9-----9-----|
 |--------------------------------------------------|

S S S S S S S S S S S S S S S S
 
 |-19p14----14-17p14----14-19p14----14-17p14----14-|
 |-------17----------17----------17----------17----|
 |-------------------------------------------------|
 |-------------------------------------------------|
 |-------------------------------------------------|
 |-------------------------------------------------|

|
| PM---| PM ~~~~~~
| E E E E E E E E
 
 |-------------------------------------------------|
 |-------------------------------------------------|
 |-------------------------------------------------|
 |-12----------------11----------------------------|
 |--------9-----9-----------9----14-----------8----|
 |-------------------------------------------------|

S S S S S S S S S S S S S S S S
 
 |-16p=13----13-16p13----13-16p13----13-16p13----13-|
 |--------14----------14----------14----------14----|
 |--------------------------------------------------|
 |--------------------------------------------------|
 |--------------------------------------------------|
 |--------------------------------------------------|

|
 
 |~~~~~ PM---| PM---|

| +Q E E E E E E
 
 |--------------------------------------------------|
 |--------------------------------------------------|
 |--------------------------------------------------|
 |--------------11-----------------9----------------|
 |-(8)-----------------8-----8-----------8-----8----|
 |--------------------------------------------------|

S S S S S S S S S S S S S S S S
 
 |-17p13----13-16p13----13-17p13----13-16p13----13-|
 |-------14----------14----------14----------14----|
 |-------------------------------------------------|
 |-------------------------------------------------|
 |-------------------------------------------------|
 |-------------------------------------------------|

|
| PM---| PM
| E E E E E E E E
 
 |-------------------------------------------------|
 |-------------------------------------------------|
 |-------------------------------------------------|
 |-12----------------11-----------9-----------9----|
 |--------8-----8-----------8-----------------7----|
 |-------------------------------------------------|

S S S S S S S S S S S S S S S S
 
 |-16p=12----12-16p12----12-16p12----12-16p12----12-|
 |--------12----------12----------12----------12----|
 |--------------------------------------------------|
 |--------------------------------------------------|
 |--------------------------------------------------|
 |--------------------------------------------------|

|
| PM PM
| +E E E E E E E E
 
 |--------------------------------------------------|
 |--------------------------------------------------|
 |--------------------------------------------11----|
 |-(9)-----9-----9-----------------9----------11----|
 |-(7)-----7-----7-----------7-----7-----7-----9----|
 |--------------------------------------------------|

S S S S S S S S S S S S S S S S
 
 |-17p12----12-16p12----12-17p12----12-16p12----12-|
 |-------12----------12----------12----------12----|
 |-------------------------------------------------|
 |-------------------------------------------------|
 |-------------------------------------------------|
 |-------------------------------------------------|

|
| E E E E E E E E
 
 |-------------------------------------------------|
 |-------------------------------------------------|
 |-11-----9-----------------------4----------------|
 |-11-----9-----------7-----------2-----------4----|
 |--9-----7-----------5-----------------------2----|
 |-------------------------------------------------|

S S S S S S S S S S S S S S S S
 
 |-14p=11----11-14p11----11-14p=11----11-14p11----11-|
 |--------12----------12-----------12----------12----|
 |---------------------------------------------------|
 |---------------------------------------------------|
 |---------------------------------------------------|
 |---------------------------------------------------|

|
| +H +Q. E
 
 |---------------------------------------------------|
 |---------------------------------------------------|
 |---------------------------------------------------|
 |-(4)----------------------(4)-----------------7----|
 |-(2)----------------------(2)-----------------5----|
 |---------------------------------------------------|

S S S S S S S S S S S S S S S S
 
 |-11--12-14s16-12-14-16s17-14--16-17s19-12-14-16s17-|
 |---------------------------------------------------|
 |---------------------------------------------------|
 |---------------------------------------------------|
 |---------------------------------------------------|
 |---------------------------------------------------|

|
| Q. E +Q. E
 
 |---------------------------------------------------|
 |---------------------------------------------------|
 |---------------------------------------------------|
 |--7------------------9----(9)----------------11----|
 |--5------------------7----(7)-----------------9----|
 |---------------------------------------------------|

S S S S S S S S S S S S S S S S
 
 |-/21p=17----17-21p17----17-21p17----17-21p17----17-|
 |---------19----------19----------19----------19----|
 |---------------------------------------------------|
 |---------------------------------------------------|
 |---------------------------------------------------|
 |---------------------------------------------------|

|
 
 | PM------------------------|

| +E E E S S S S S S S S S S
 
 |---------------------------------------------------|
 |---------------------------------------------------|
 |---------------------------------------------------|
 |-(11)----11----11----------------------------------|
 |--(9)-----9-----9-----9--9--9--9-14-14--9--9--9--9-|
 |---------------------------------------------------|

S S S S S S S S S S S S S S S S
 
 |-22p17----17-21p17----17-22p17----17-21p17----17-|
 |-------19----------19----------19----------19----|
 |-------------------------------------------------|
 |-------------------------------------------------|
 |-------------------------------------------------|
 |-------------------------------------------------|

|
 
 | PM------------------------------------| ~~~~~~

| S S S S S S S S S S S S S S E
 
 |-------------------------------------------------|
 |-------------------------------------------------|
 |-------------------------------------------------|
 |-12-12-------11-11-------------------11-11-------|
 |--------9--9--------9--9-14-14--9--9--------8----|
 |-------------------------------------------------|

S S S S S S S S S S S S S S S S
 
 |-21p16----16-21p16----16-21p16----16-21p16----16-|
 |-------18----------18----------18----------18----|
 |-------------------------------------------------|
 |-------------------------------------------------|
 |-------------------------------------------------|
 |-------------------------------------------------|

|
 
 |~~~~~ PM------------------------------|

| Q E S S S S E S S S S
 
 |-------------------------------------------------|
 |-------------------------------------------------|
 |-------------------------------------------------|
 |-------------11-----------------9----------------|
 |--8-----------------8--8--8--8--------8--8--8--8-|
 |-------------------------------------------------|

S S S S S S S S S S S S S S S S

Important: The song above is NOT stored on the Chordie server. The original song is hosted at www.guitaretab.com. Chordie works as a search engine and provides on-the-fly formatting. Chordie does not index songs against artists'/composers' will. To remove this song please click here.

Text color:
Chord color:
Chord grids: 
Font size:    
Page size: 

E
Rate #1 of 2 versions

Jango Player

Login - add to songbook

SHARE PAGE  




You need to log in to post comments