Guitar Tabs, Chords and Lyrics
Major upgrade!! After one year development the new version of Chordie is now online! Please give feedback.


Pull Me Under  Dream Theater

PULL ME UNDER
As recorded by Dream Theater
(From the 1992 Album IMAGES & WORDS)
Words by Kevin Moore
Music by John Petrucci, Mike Portnoy, John Myung, James Labrie & Kevin Moore
Done By Daniel Pacheco
Gtr I (E A D G B E) - 'Clean'
Gtr II (E A D G B E) - 'Dist Rhythm'
Gtr III (E A D G B E) - 'Dist Lead'
Intro
Q=102
[Em] [Em9] [Em6] [C/E] [D6] 
[4/4] Gtr I
~~~~~~ ~~~~~~ ~~~~~~
Q E E +H Q E E +H Q E E +H Q E E +E E E E
 
 ||----------------|---------------|---------------|-------------------|
 ||o---------------|---------------|---------------|----------------0--|
 ||-------0-(0)----|------0-(0)----|------0-(0)----|------0-(0)---2----|
 ||-----7----------|----4----------|---------------|------------0------|
 ||o---------------|---------------|----4----------|----3--------------|
 ||--0-------------|-0-------------|-0-------------|-0-----------------|

[Em] ~~~~~~ [Em9] ~~~~~~ [Em6] ~~~~~~[C/E] [F+11]
Q E E +H Q E E +H Q E E +H Q E E +E E E E
 
 |---------------|---------------|---------------|-------------------||
 |---------------|---------------|---------------|----------------0-o||
 |------0-(0)----|------0-(0)----|------0-(0)----|------0-(0)---2----||
 |----7----------|----4----------|---------------|-------------------||
 |---------------|---------------|----4----------|----3-------------o||
 |-0-------------|-0-------------|-0-------------|-0----------1------||

[Em]Q E E E Q E [Em9]Q E E E Q E [Em6]Q E E E Q E [C/E]Q E E [D6]+E E E E
 
 |----------0----|----------0----|----------0----|------------------|
 |-------------0-|-------------0-|-------------0-|----------------0-|
 |------0--------|------0--------|------0--------|------0-(0)---2---|
 |----7----------|----4----------|---------------|------------0-----|
 |---------------|---------------|----4----------|----3-------------|
 |-0------0------|-0------0------|-0------0------|-0----------------|

[Em]Q E E E Q E [Em9]Q E E E Q E [Em6]Q E E E Q E [C/E]Q E E +E [F+11]E E E
 
 |----------0----|----------0----|----------0----|------------------|
 |-------------0-|-------------0-|-------------0-|----------------3-|
 |------0--------|------0--------|------0--------|------0-(0)---2---|
 |----7----------|----4----------|---------------|------------------|
 |---------------|---------------|----4----------|----3-------------|
 |-0------0------|-0------0------|-0------0------|-0----------1-----|

[Em] ~~~~~~ [Em9] ~~~~~~ [Em6] ~~~~~~
Q E E +H Q E E +H Q E E +H
 
 ||----------------|---------------|---------------|
 ||o---------------|---------------|---------------|
 ||-------0-(0)----|------0-(0)----|------0-(0)----|
 ||-----7----------|----4----------|---------------|
 ||o---------------|---------------|----4----------|
 ||--0-------------|-0-------------|-0-------------|

|
| Gtr II
| W W W
 
 ||--0-------------|-0-------------|-0-------------|
 ||o-0-------------|-0-------------|-0-------------|
 ||--9-------------|-9-------------|-9-------------|
 ||--9-------------|-9-------------|-9-------------|
 ||o-7-------------|-7-------------|-7-------------|
 ||--0-------------|-0-------------|-0-------------|

1. 2.
[C/E]Q E E [D6]+E E E E [C/E]Q E E +E [F+11]E E E
 
 |--------------------||-------------------|
 |-----------------0-o||-----------------0-|
 |-------0-(0)---2----||-------0-(0)---2---|
 |-------------0------||-------------------|
 |-----3-------------o||-----3-------------|
 |-0------------------||-0-----------1-----|

|
| Q Q +E E Q Q Q +E E Q
 
 |-0------------------||-0-----------------|
 |-0-----------------o||-0-----------------|
 |-9--5---(5)-7-7-----||-9--5---(5)--------|
 |-9--5---(5)-7-7-----||-9--5---(5)--3-3---|
 |-7--3---(3)-5-5---o-||-7--3---(3)--3-3---|
 |-0------------------||-0-----------1-1---|

[E5]Gtr II[A5G5E5] [F#G5E5] [C#G5E5]
 
 PM--| PM------------| PM------------| PM----|

S S E E E E E E E S S E E E E E E E S S E E E E E E E
 
 ||--------------------|-------------------|-------------------|
 ||o-------------------|-------------------|-------------------|
 ||--------------------|-------------------|-------------------|
 ||--------7s5-2-2-2-2-|-------4s5-2-2-2-2-|-------6-5-2-2-2-2-|
 ||o-------7s5-2-2-2-2-|-------4s5-2-2-2-2-|-------4-5-2-2-2-2-|
 ||--0-0-0-----0-0-0-0-|-0-0-0-----0-0-0-0-|-0-0-0-----0-0-0-0-|

1. 2.
PM--| [B5C5] [D5] PM--|[B5C5] [F5]
S S E E E S S E +Q S S E E E S S E +Q
 
 |-----------------------||----------------------|
 |----------------------o||----------------------|
 |-----------------------||----------------------|
 |-------4s5-----7-(7)---||-------4s5-----3-(3)--|
 |-------2s3-----5-(5)--o||-------2s3-----3-(3)--|
 |-0-0-0-2s3-0-0-5-(5)---||-0-0-0-2s3-0-0-1-(1)--|

[E5] [A5G5E5] [F#G5E5] [C#G5E5]  
 
 PM--| PM| PM| PM--| PM| PM| PM--| PM| PM|

S S E E E S S E S S E S S E E E S S E S S E S S E E E S S E S S E
 
 ||------------------------|-----------------------|------------------------|
 ||o-----------------------|-----------------------|------------------------|
 ||------------------------|-----------------------|------------------------|
 ||--------7s5-----2-----2-|-------4s5-----2-----2-|-------6-5-----2-----2--|
 ||o-------7s5-----2-----2-|-------4s5-----2-----2-|-------4-5-----2-----2--|
 ||--0-0-0-----0-0-0-0-0-0-|-0-0-0-----0-0-0-0-0-0-|-0-0-0-----0-0-0-0-0-0--|

1. 2.
PM--| [B5C5] PM| [D5] PM--| [B5C5] PM|[F5]
S S E E E S S E +Q S S E E E S S E +Q
 
 |-----------------------||----------------------|
 |----------------------o||----------------------|
 |-----------------------||----------------------|
 |-------4s5-----7-(7)---||-------4s5-----3-(3)--|
 |-------2s3-----5-(5)--o||-------2s3-----3-(3)--|
 |-0-0-0-2s3-0-0-5-(5)---||-0-0-0-2s3-0-0-1-(1)--|

[E5]S S E S S E S S E S S E S S E S S E S S E S S E S S E S S E S S E S S E
 
 |-------------------------|-------------------------|--------------------------|
 |-------------------------|-------------------------|--------------------------|
 |-------------------------|-------------------------|--------------------------|
 |-------------------------|-------------------------|--------------------------|
 |-2-2---2-2---2-2---2-2---|-2-2---2-2---2-2---2-2---|-2-2---2-2---2-2---2-2----|
 |-0-0---0-0---0-0---0-0---|-0-0---0-0---0-0---0-0---|-0-0---0-0---0-0---0-0----|

1st Verse
[Em9] S S S S S S S S S S S S S S S S
 
 |-----------------------------------------|
 |-----------------------------------------|
 |-11-11-----11-11-----11-11-----11-11-----|
 |--9--9------9--9------9--9------9--9-----|
 |--7--7------7--7------7--7------7--7-----|
 |-------0-0-------0-0-------0-0-------0-0-|

[Em9+5] S S S S S S S S S S S S S S S S
 
 |-----------------------------------------|
 |-----------------------------------------|
 |-12-12-----12-12-----12-12-----12-12-----|
 |-10-10-----10-10-----10-10-----10-10-----|
 |--9--9------9--9------9--9------9--9-----|
 |-------0-0-------0-0-------0-0-------0-0-|

[Esus4] S S S S S S S S S S S S S S S S
 
 |-----------------------------------------|
 |-10-10-----10-10-----10-10-----10-10-----|
 |--9--9------9--9------9--9------9--9-----|
 |--9--9------9--9------9--9------9--9-----|
 |-----------------------------------------|
 |-------0-0-------0-0-------0-0-------0-0-|

[C5/E] S S S S S S S S [Cb5/E] S S S S S S S S
 
 |-----------------------------------------|
 |-13-13-----13-13-----13-13-----13-13-----|
 |-12-12-----12-12-----11-11-----11-11-----|
 |-10-10-----10-10-----10-10-----10-10-----|
 |-----------------------------------------|
 |-------0-0-------0-0-------0-0-------0-0-|

[E9] S S S S S S S S S S S S S S S S
 
 |-----------------------------------------|
 |-----------------------------------------|
 |-11-11-----11-11-----11-11-----11-11-----|
 |--9--9------9--9------9--9------9--9-----|
 |--7--7------7--7------7--7------7--7-----|
 |-------0-0-------0-0-------0-0-------0-0-|

[C+11/E] S S S S S S S S S S S S S S S S
 
 |-----------------------------------------|
 |-----------------------------------------|
 |-12-12-----12-12-----12-12-----12-12-----|
 |-10-10-----10-10-----10-10-----10-10-----|
 |--9--9------9--9------9--9------9--9-----|
 |-------0-0-------0-0-------0-0-------0-0-|

[Esus4] S S S S S S S S S S S S S S S S
 
 |-----------------------------------------|
 |-10-10-----10-10-----10-10-----10-10-----|
 |--9--9------9--9------9--9------9--9-----|
 |--9--9------9--9------9--9------9--9-----|
 |-----------------------------------------|
 |-------0-0-------0-0-------0-0-------0-0-|

[C5/E] S S S S S S S S [F9/E] S S S S [Fb5/E] S S S S
 
 |-----------------------------------------|
 |-13-13-----13-13-------------------------|
 |-12-12-----12-12-----12-12-----10-10-----|
 |-10-10-----10-10-----10-10------9--9-----|
 |----------------------8--8------8--8-----|
 |-------0-0-------0-0-------0-0-------0-0-|

Pre-Chorus
[Em]Gtr I[Gsus4]
Q E E +E E Q E E E E +E E Q
 
 |------2-(2)------|-------3-(3)------|
 |------------5----|-------------3----|
 |--------------4--|-----5------------|
 |-----------------|---5--------------|
 |-----------------|------------------|
 |-----------------|------------------|

|
| Gtr II
| W W
 
 |-----------------|-3----------------|
 |-8---------------|-3----------------|
 |-9---------------|-5----------------|
 |-9---------------|-5----------------|
 |-7---------------|-3----------------|
 |-0---------------|-3----------------|

[G#sus4] |-3-|[G5] [B]
E E E E +E E S S S E Q a E E E E E E
 
 |-------4-(4)-----------|------------0------|
 |-------------5-4-5-4---|--------------4----|
 |-----6---------------6-|----0h2-0-------4--|
 |---6-------------------|-------------------|
 |-----------------------|----------2--------|
 |-----------------------|-3-----------------|

|
| W H H
 
 |-4---------------------|-3-----------------|
 |-4---------------------|-3--------4--------|
 |-6---------------------|-0--------4--------|
 |-6---------------------|-0--------4--------|
 |-4---------------------|----------2--------|
 |-4---------------------|-3-----------------|

[Em9]E E E E +E E Q [Gsus4]E E E E +E E E E
 
 |---------------------|------------------------|
 |---------------8-----|-----------------8----8-|
 |-------11-(11)---11--|---------11-(11)---11---|
 |-----9---------------|------12----------------|
 |---7-----------------|---10-------------------|
 |-0-------------------|-8----------------------|

|
| W W
 
 |---------------------|-3----------------------|
 |-8-------------------|-3----------------------|
 |-9-------------------|-5----------------------|
 |-9-------------------|-5----------------------|
 |-7-------------------|-3----------------------|
 |-0-------------------|-3----------------------|

[G#sus4] |-3-|[G5] [B]
E E E E +E E S S S E E E E E E E E E
 
 |-------4-(4)-----------|-------------0-----|
 |-------------5-4-5-4---|---------------4---|
 |-----6---------------6-|-------0-----------|
 |---6-------------------|-----7-----4-------|
 |-4---------------------|---5-----2---------|
 |-----------------------|-3-----------------|

|
| W H H
 
 |-4---------------------|-3-----------------|
 |-4---------------------|-3-------4---------|
 |-6---------------------|-0-------4---------|
 |-6---------------------|-0-------4---------|
 |-4---------------------|---------2---------|
 |-4---------------------|-3-----------------|

Interlude
[E5]Gtr III[D5/A]
S S S S S S S S S S S S S S S S S S S S S S S S S S S S S S S S
 
 |-------7---------7---------7-----|-------8---------8---------8-----|
 |---5-----5-7-5-------7-5-----5---|-7-5-------7-5-------7-5-----5---|
 |-4---4---------4---4-----4-----4-|-----5---5-----5---5-----5-----5-|
 |---------------------------------|---------------------------------|
 |---------------------------------|---------------------------------|
 |---------------------------------|---------------------------------|

|
| Gtr II
 
 | PM--------------------------------------------------------------|

| S S S S S S S S S S S S S S S S S S S S S S S S S S S S S S S S
 
 |---------------------------------|---------------------------------|
 |---------------------------------|---------------------------------|
 |---------------------------------|---------------------------------|
 |---------------------------------|-7-7-7-7-7-7-7-7-7-7-7-7-7-7-7-7-|
 |-2-2-2-2-2-2-2-2-2-2-2-2-2-2-2-2-|-5-5-5-5-5-5-5-5-5-5-5-5-5-5-5-5-|
 |-0-0-0-0-0-0-0-0-0-0-0-0-0-0-0-0-|-5-5-5-5-5-5-5-5-5-5-5-5-5-5-5-5-|

[A/C#] S S S S S S S S S S S S S S S S [C5]S S S S S S S S S S S S S S S S
 
 |---------12-----------12-----------12------|-----------------8-----7-5-------|
 |-12-10--------12-10--------12-10------10---|-8---7-5---7-8-----7-------5-8-7-|
 |-------9----9-------9----9-------9-------9-|---5-----5-----5-----5-----------|
 |-------------------------------------------|---------------------------------|
 |-------------------------------------------|---------------------------------|
 |-------------------------------------------|---------------------------------|

|
 
 | PM-----------------------------------------------------------------------|

| S S S S S S S S S S S S S S S S S S S S S S S S S S S S S S S S
 
 |-------------------------------------------|---------------------------------|
 |-------------------------------------------|---------------------------------|
 |-------------------------------------------|---------------------------------|
 |--7--7-7--7-7--7--7-7--7-7--7--7-7--7--7-7-|-5-5-5-5-5-5-5-5-5-5-5-5-5-5-5-5-|
 |--4--4-4--4-4--4--4-4--4-4--4--4-4--4--4-4-|-3-3-3-3-3-3-3-3-3-3-3-3-3-3-3-3-|
 |-------------------------------------------|---------------------------------|

[E5]+S S S S S S S S S S S S S S S S [F#5]S S S S S S S S S S S S S S S S
 
 |---------7---------7---------7-----|-------8---------8---------8-----|
 |-(7)-5-----5-7-5-------7-5-----5---|-7-5-------7-5-------7-5-----5---|
 |-------4---------4---4-----4-----4-|-----5---5-----5---5-----5-----5-|
 |-----------------------------------|---------------------------------|
 |-----------------------------------|---------------------------------|
 |-----------------------------------|---------------------------------|

|
 
 | PM---------------------------------------------------------------|

| S S S S S S S S S S S S S S S S S S S S S S S S S S S S S S S S
 
 |-----------------------------------|---------------------------------|
 |-----------------------------------|---------------------------------|
 |-----------------------------------|---------------------------------|
 |-----------------------------------|---------------------------------|
 |--2--2-2-2-2-2-2-2-2-2-2-2-2-2-2-2-|-4-4-4-4-4-4-4-4-4-4-4-4-4-4-4-4-|
 |--0--0-0-0-0-0-0-0-0-0-0-0-0-0-0-0-|-2-2-2-2-2-2-2-2-2-2-2-2-2-2-2-2-|

[C#b5] S S S S S S S S S S S S S S S S
 
 |---------12-----------12-----------12------|
 |-12-10--------12-10--------12-10------10---|
 |-------9----9-------9----9-------9-------9-|
 |-------------------------------------------|
 |-------------------------------------------|
 |-------------------------------------------|

|
 
 | PM----------------------------------------

| S S S S S S S S S S S S S S S S
 
 |-------------------------------------------|
 |-------------------------------------------|
 |-------------------------------------------|
 |--5--5-5--5-5--5--5-5--5-5--5--5-5--5--5-5-|
 |--4--4-4--4-4--4--4-4--4-4--4--4-4--4--4-4-|
 |-------------------------------------------|

[C5] S S S S S S S S [F5] S S S S [Fb5] S S S S
 
 |-15----14-12----14-15----13----12-10----12-13----|
 |----13-------12-------12----10-------10-------10-|
 |-------------------------------------------------|
 |-------------------------------------------------|
 |-------------------------------------------------|
 |-------------------------------------------------|

|
 
 |----------------------------------------------|

| S S S S S S S S S S S S S S S S
 
 |-------------------------------------------------|
 |-------------------------------------------------|
 |-------------------------------------------------|
 |--5--5--5--5--5--5--5--5-------------------------|
 |--3--3--3--3--3--3--3--3--3--3--3--3--2--2--2--2-|
 |--------------------------1--1--1--1--1--1--1--1-|

2nd Verse
[E5] E E Q H [G] [Em]W
 
 |-12---------------|---------------------------------|
 |------------------|---------------------------------|
 |------------------|---------------------------------|
 |------------------|---------------------------------|
 |------------------|---------------------------------|
 |------------------|---------------------------------|

|
| S S E Q Q E E S S S S S S S S S S S S S S S S
 
 |------------------|---------------------------------|
 |------------------|---------------------------------|
 |----------------0-|---------------------------------|
 |--2-------------0-|---------------------------------|
 |--2---------------|---------------------------------|
 |--0-0-----------3-|-0-0-2-0-3-0-0-6-0-5-0-0-3-0-1-0-|

[Em6]Gtr II[C/E]
S S S S S S S S S S S S S S S S S S S S S S S S S S S S S S S S
 
 |---------------------------------|---------------------------------|
 |---------------------------------|---------------------------------|
 |---------------------------------|---------------------------------|
 |---------------------------------|---------------------------------|
 |---------------------------------|---------------------------------|
 |-0-0-2-0-3-0-0-6-0-5-0-0-3-0-1-0-|-0-0-2-0-3-0-0-6-0-5-0-0-3-0-1-0-|

[E5]S S S S S S S S S S S S S S S S [Em]S S S S S S S S S S S S S S S S
 
 |---------------------------------|---------------------------------|
 |---------------------------------|---------------------------------|
 |---------------------------------|---------------------------------|
 |---------------------------------|---------------------------------|
 |---------------------------------|---------------------------------|
 |-0-0-2p0-3p0-0-6p0-5p0-0-3p0-1p0-|-0-0-2p0-3p0-0-6p0-5p0-0-3p0-1p0-|

[Em6]S S S S S S S S S S S S S S S S [C/E]S S S S S S S S S S S S S S S S
 
 |---------------------------------|---------------------------------|
 |---------------------------------|---------------------------------|
 |---------------------------------|-----------------------5-4-2-----|
 |---------------------------------|-----------------5-4-2-----------|
 |---------------------------------|-----------3-2-0-----------------|
 |-0-0-2p0-3p0-0-6p0-5p0-0-3p0-1p0-|-0-2-3-2-0-------------------3-1-|

Pre-Chorus
[Em] |-3-| [C/E] |-3-|
S S S S S S S S S S S S S S S S S S S S S S S S S S S S S S S S S S
 
 |-----------------------------------|-----------------------------------|
 |-----------------------------------|-----------------------------------|
 |-----------------------------------|-----------------------------------|
 |-----------------------------------|-----------------------------------|
 |---------2-3-2-3-2---2-------------|---------3-5-3-5-3---3-------------|
 |-0-2-3-5-----------5---3-5-2-5-3-2-|-0-3-5-7-----------7---5-7-3-7-5-3-|

[A/C#] |-3-|
S S S S S S S S S S S S S S S S S
 
 |-----------------------------------|
 |-----------------------------------|
 |-----------------------------------|
 |-----------------------------------|
 |---------5-7-5-7-5---5-------------|
 |-0-5-7-9-----------9---7-9-5-9-7-5-|

[G] [B]  
 
 |-3--| |-3--|

S S S S S S T T T S S S S S S S T T T S
 
 |--------------------------------------------------|
 |--------------------------------------------------|
 |--------------------------------------------------|
 |--------------------------------------------------|
 |----------7-10-7-10-7-------------9-12-9-12-9-----|
 |-0-7-8-10-------------8-0-8-10-12-------------10--|

[Em] |--3--|
S S S S S S S S S S S S S S S S S
 
 |---------------------------------------------------|
 |---------------------------------------------------|
 |---------------------------------------------------|
 |---------------------------------------------------|
 |------------10-12-10-12-10----10-------------------|
 |-0-10-12-14----------------14----12-14-10-14-12-10-|

[C/E] |--3--|
S S S S S S S S S S S S S S S S S
 
 |---------------------------------------------------|
 |---------------------------------------------------|
 |---------------------------------------------------|
 |---------------------------------------------------|
 |------------12-14-12-14-12----12-------------------|
 |-0-12-14-15----------------15----14-15-12-15-14-12-|

[A/C#]Gtr III
W
 
 |---------------------------------------------------|
 |---------------------------------------------------|
 |---------------------------------------------------|
 |---------------------------------------------------|
 |---------------------------------------------------|
 |---------------------------------------------------|

|
| Gtr II
| |--3--|
| S S S S S S S S S S S S S S S S S
 
 |---------------------------------------------------|
 |---------------------------------------------------|
 |---------------------------------------------------|
 |---------------------------------------------------|
 |------------14-16-14-16-14----14-------------------|
 |-0-14-15-17----------------17----15-17-14-17-15-14-|

[G] [B] ~~
H S S S S S S S S
 
 |--------------------------------------------------|
 |--------------------------------------------13-12-|
 |----------------------------------10------9-------|
 |-------------------------------------9-10---------|
 |------------------------------7-8-----------------|
 |--------------------------------------------------|

|
| |--3--|
| S S S S S S T T T S S S S S S S S S
 
 |--------------------------------------------------|
 |--------------------------------------------------|
 |---------------------------------------------5--4-|
 |-----------------------------------3------2-------|
 |------------15-19-15-19-15-----------2--3---------|
 |-0-15-17-19----------------17-0-1-----------------|

[E5] ~~~~ ~~ [F5] ~~~
+Q. S S Q S S E
 
 |----------------------------------|
 |-(12)-------12-13-15-----13-12----|
 |-------------------------------14-|
 |----------------------------------|
 |----------------------------------|
 |----------------------------------|

|
| PM| PM| PM|
| E S S E S S E S S E E
 
 |----------------------------------|
 |----------------------------------|
 |----------------------------------|
 |----------------------------------|
 |---2------2--------2------2-----3-|
 |---0--0-0-0--0--0--0-0-0--0-----1-|

~~~~~~ ~~[B5]~~~
+E T T T T T T T T T T T T T T T T T T T T T T T T E
 
 |---------------------------------------------------------------------17-18-19-19-|
 |---------------------------------------------16-17-18-19-18-17-18-19-------------|
 |-(14)----------------14-16-17-19-17-16-17-19-------------------------------------|
 |------17-15-14-15-17-------------------------------------------------------------|
 |---------------------------------------------------------------------------------|
 |---------------------------------------------------------------------------------|

|
 
 | PM---| PM---| PM---|

| +E S S E S S E S S E E
 
 |---------------------------------------------------------------------------------|
 |---------------------------------------------------------------------------------|
 |---------------------------------------------------------------------------------|
 |-------------------------------------------------------------------------------4-|
 |--(3)--------------3-----------------------3-----------------------3-----------2-|
 |--(1)--1-----1-----1-----------1-----1-----1-----------1-----1-----1-------------|

[C5] [B5] [A5] [Gsus2] 11/8[Csus2B5]
~~~~
+W W
 
 |-(19)----------------|----------------------------|
 |---------------------|----------------------------|
 |---------------------|----------------------------|
 |---------------------|----------------------------|
 |---------------------|----------------------------|
 |---------------------|----------------------------|

|
| ~~~~~~~~~~
| +E Q E +E Q E +E Q E S S S S H +E
 
 |-------------------5-|-(5)-3----------------------|
 |---------------10--8-|-(8)-3----------------------|
 |----------------9--7-|-(7)-5----------7-----------|
 |--(4)-5--4-(4)--7--5-|-(5)-5--9-9-7-9---9----(9)--|
 |--(2)-3--2-(2)--7--5-|-(5)-3----------------------|
 |---------------------|----------------------------|

Chorus
[A5] [A5/EF5] [G5] 
[4/4] Gtrs I, II
W W W Q Q +E E Q
 
 |---------------|---------------|---------------|-----------------|
 |---------------|---------------|---------------|-----------------|
 |-2-------------|-2-------------|-2-------------|--2--------------|
 |-2-------------|-2-------------|-2-------------|--2--3--(3)-5-5--|
 |-0-------------|-0-------------|-0-------------|--0--3--(3)-5-5--|
 |---------------|---------------|---------------|--0--1--(1)-3-3--|

|
| Gtr III
| Q E E +H Q E E +H Q E E +H Q Q +E E Q
 
 |---------------|---------------|---------------|-----------------|
 |----3----------|------1-(1)----|---------------|-10--6--(6)-8-8--|
 |------5-(5)----|----4----------|------5-(5)----|--9--5--(5)-7-7--|
 |---------------|---------------|----4----------|--7--3--(3)-5-5--|
 |-0-------------|-0-------------|-0-------------|-----------------|
 |---------------|---------------|---------------|-----------------|

W W W
[A5]H +E [G/BC5]Q E W [D5]H +E [E5]Q [F5] E H +E [Bbsus2]Q.
 
 |-----------------|---------------|--------------------|-----------------|
 |-----------------|---------------|--------------------|------------1----|
 |-2------(2)----5-|-5-------------|-7------(7)-9----10-|-10----(10)-3----|
 |-2------(2)----5-|-5-------------|-7------(7)-9----10-|-10----(10)-3----|
 |-0------(0)-2--3-|-3-------------|-5------(5)-7-----8-|--8-----(8)-1----|
 |------------3----|---------------|--------------------|-----------------|

|
| Q E E +H Q E E +H Q E E +Q E E H +E Q.
 
 |-----------------|---------------|--------------------|-----------------|
 |----3------------|------1-(1)----|---------------1p=0-|--1-----(1)-1----|
 |------5-(5)------|----4----------|------5-(5)---------|------------3----|
 |-----------------|---------------|----4-------2-------|--3-----(3)-3----|
 |-0------(0)-2--3-|-3-------------|-5------------------|------------1----|
 |-----------------|---------------|--------------------|-----------------|

H +E Q E W H E Q. H +E Q.
[D5E5]Gtr II[D5E5]
S S E E E E S S E S S S S E E E E S S E S S
 
 ||------------------------|------------------------||
 ||o-----------------------|-----------------------o||
 ||------------------------|------------------------||
 ||--0h2-------------------|-0h2--------------------||
 ||o-0h2-2-2-2-2-2-2-2-2-2-|-0h2-2-2-2-2-2-2-2-2-2-o||
 ||------0-0-0-0-0-0-0-0-0-|-----0-0-0-0-0-0-0-0-0--||

3rd Verse
[E5] ~ ~ ~
|-3-|
Q Q E E S S E +E S S H S S S E
 
 |-----------------|----------------------|
 |-----------------|----------------------|
 |-----------------|----------------------|
 |-----------------|----------------------|
 |-----------x-x-5-|-(5)-7-5-7----5-7-5---|
 |-0--3--5-7-------|--------------------7-|

[C] [D5/A]  
 
 ~ ~ ~ PM--------|

Q Q E E S S E +E S S Q S S E S S E
 
 |-----------------|------------------------|
 |-----------------|------------------------|
 |-----------------|------------------------|
 |-----------------|----------------7-----7-|
 |-----------x-x-5-|-(5)-7-5----5-5-5-5-5-5-|
 |-0--3--5-7-------|---------8--5-5-5-5-5-5-|

[E5] ~ ~ ~
Q Q E E S S E +E S S Q H
 
 |-----------------|--------------------|
 |-----------------|--------------------|
 |-----------------|--------------------|
 |-----------------|--------------------|
 |-----------x-x-5-|-(5)-7-5-7--5tr7----|
 |-0--3--5s7-------|--------------------|

~ ~ [C]~[F5]
Q Q E E S S E +E S S Q S S E S S E
 
 |-----------------|------------------------|
 |-----------------|------------------------|
 |-----------------|------------------------|
 |-----------------|----------------3-----3-|
 |-----------x-x-5-|-(5)-7-5----3-3-3-3-3-3-|
 |-0--3--5-7-------|---------8--1-1-1-1-1-1-|

Pre-Chorus
[Em]Gtr I[Gsus4]
Q E E +E E Q E E E E +E E Q
 
 |------2-(2)------|-------3-(3)------|
 |------------5----|-------------3----|
 |--------------4--|-----5------------|
 |-----------------|---5--------------|
 |-----------------|------------------|
 |-----------------|------------------|

|
| Gtr II
| W W
 
 |-----------------|-3----------------|
 |-8---------------|-3----------------|
 |-9---------------|-5----------------|
 |-9---------------|-5----------------|
 |-7---------------|-3----------------|
 |-0---------------|-3----------------|

[G#sus4] |-3-|[G] [B]
E E E E +E E S S S E Q a E E E E E E
 
 |-------4-(4)-----------|------------0------|
 |-------------5-4-5-4---|--------------4----|
 |-----6---------------6-|----0h2-0-------4--|
 |---6-------------------|-------------------|
 |-----------------------|----------2--------|
 |-----------------------|-3-----------------|

|
| W H H
 
 |-4---------------------|-3-----------------|
 |-4---------------------|-3--------4--------|
 |-6---------------------|-0--------4--------|
 |-6---------------------|-0--------4--------|
 |-4---------------------|----------2--------|
 |-4---------------------|-3-----------------|

[Em]E E E E +E E Q [Gsus4]E E E E +E E E E
 
 |---------------------|------------------------|
 |---------------8-----|-----------------8----8-|
 |-------11-(11)---11--|---------11-(11)---11---|
 |-----9---------------|------12----------------|
 |---7-----------------|---10-------------------|
 |-0-------------------|-8----------------------|

|
| W W
 
 |---------------------|-3----------------------|
 |-8-------------------|-3----------------------|
 |-9-------------------|-5----------------------|
 |-9-------------------|-5----------------------|
 |-7-------------------|-3----------------------|
 |-0-------------------|-3----------------------|

[G#sus4] |-3-|[G] [B]
E E E E +E E S S S E E E E E E E E E
 
 |-------4-(4)-----------|-------------0-----|
 |-------------5-4-5-4---|---------------4---|
 |-----6---------------6-|-------0-----------|
 |---6-------------------|-----7-----4-------|
 |-4---------------------|---5-----2---------|
 |-----------------------|-3-----------------|

|
| W H H
 
 |-4---------------------|-3-----------------|
 |-4---------------------|-3-------4---------|
 |-6---------------------|-0-------4---------|
 |-6---------------------|-0-------4---------|
 |-4---------------------|---------2---------|
 |-4---------------------|-3-----------------|

Interlude
[E5]Gtr III[F#5]
S S S S S S S S S S S S S S S S S S S S S S S S S S S S S S S S
 
 |-------7---------7---------7-----|-------8---------8---------8-----|
 |-7-5-------7-5-------7-5-----5---|-7-5-------7-5-------7-5-----5---|
 |-----4---4-----4---4-----4-----4-|-----5---5-----5---5-----5-----5-|
 |---------------------------------|---------------------------------|
 |---------------------------------|---------------------------------|
 |---------------------------------|---------------------------------|

|
| Gtr II
 
 | PM--------------------------------------------------------------|

| S S S S S S S S S S S S S S S S S S S S S S S S S S S S S S S S
 
 |---------------------------------|---------------------------------|
 |---------------------------------|---------------------------------|
 |---------------------------------|---------------------------------|
 |---------------------------------|---------------------------------|
 |-2-2-2-2-2-2-2-2-2-2-2-2-2-2-2-2-|-4-4-4-4-4-4-4-4-4-4-4-4-4-4-4-4-|
 |-0-0-0-0-0-0-0-0-0-0-0-0-0-0-0-0-|-2-2-2-2-2-2-2-2-2-2-2-2-2-2-2-2-|

[C#b5] S S S S S S S S S S S S S S S S
 
 |---------12-----------12-----------12------|
 |-12-10--------12-10--------12-10------10---|
 |-------9----9-------9----9-------9-------9-|
 |-------------------------------------------|
 |-------------------------------------------|
 |-------------------------------------------|

|
 
 | PM----------------------------------------

| S S S S S S S S S S S S S S S S
 
 |-------------------------------------------|
 |-------------------------------------------|
 |-------------------------------------------|
 |--5--5-5--5-5--5--5-5--5-5--5--5-5--5--5-5-|
 |--4--4-4--4-4--4--4-4--4-4--4--4-4--4--4-4-|
 |-------------------------------------------|

[C5] S S S S S S S S S S S S S S S S
 
 |-15----14-12----14-15----------13-------12-13----|
 |----13-------12-------12----------12h13-------12-|
 |----------------------------10-------------------|
 |-------------------------14----------------------|
 |-------------------------------------------------|
 |-------------------------------------------------|

|
 
 |----------------------|

| S S S S S S S S S S S S S S S S
 
 |-------------------------------------------------|
 |-------------------------------------------------|
 |--------------------------------------------5--4-|
 |--5--5--5--5--5--5--5--5--------3--------2-------|
 |--3--3--3--3--3--3--3--3-----------2--3----------|
 |--------------------------0--1-------------------|

[E5] ~~ [F5] ~~~
Q. S S Q S S E
 
 |---------------------------------|
 |-12--------12-13-15-----13-12----|
 |------------------------------14-|
 |---------------------------------|
 |---------------------------------|
 |---------------------------------|

|
| PM| PM| PM|
| E S S E S S E S S E E
 
 |---------------------------------|
 |---------------------------------|
 |---------------------------------|
 |---------------------------------|
 |--2------2--------2------2-----3-|
 |--0--0-0-0--0--0--0-0-0--0-----1-|

~~~~~~ ~~[B5]~~~~~
+E T T T T T T T T T T T T T T T T T T T T T T T T +E
 
 |---------------------------------------------------------------------17-18-19-(19)-|
 |---------------------------------------------16-17-18-19-18-17-18-19---------------|
 |-(14)----------------14-16-17-19-17-16-17-19---------------------------------------|
 |------17-15-14-15-17---------------------------------------------------------------|
 |-----------------------------------------------------------------------------------|
 |-----------------------------------------------------------------------------------|

|
 
 | PM---| PM---| PM---|

| +E S S E S S E S S E E
 
 |-----------------------------------------------------------------------------------|
 |-----------------------------------------------------------------------------------|
 |-----------------------------------------------------------------------------------|
 |--------------------------------------------------------------------------------4--|
 |--(3)--------------3-----------------------3-----------------------3------------2--|
 |--(1)--1-----1-----1-----------1-----1-----1-----------1-----1-----1---------------|

[C5] [B5] [A5] [Gsus2] 11/8[Csus2B5]
~~~~ ~~~~~~~~~~~~~~~~
+W H Q H +E
 
 |-(19)----------------|-----------------------------------|
 |---------------------|------------------10b12=====(10)r-|
 |---------------------|-----------------------------------|
 |---------------------|-----------------------------------|
 |---------------------|-----------------------------------|
 |---------------------|-----------------------------------|

|
| ~~~~~~~~~~~~~~~~
| +E Q E +E Q E +E Q E S S S S H +E
 
 |-------------------5-|-(5)-3-----------------------------|
 |---------------10--8-|-(8)-3-----------------------------|
 |----------------9--7-|-(7)-5----------7------------------|
 |--(4)-5--4-(4)--7--5-|-(5)-5--9-9-7-9----9---------(9)--|
 |--(2)-3--2-(2)--7--5-|-(5)-3-----------------------------|
 |---------------------|-----------------------------------|

Chorus
[A5] [A5/EF5] [G5] 
[4/4] Gtrs I, II
W W W Q Q +E E Q
 
 |---------------|---------------|---------------|-----------------|
 |---------------|---------------|---------------|-----------------|
 |-2-------------|-2-------------|-2-------------|--2--------------|
 |-2-------------|-2-------------|-2-------------|--2--3--(3)-5-5--|
 |-0-------------|-0-------------|-0-------------|--0--3--(3)-5-5--|
 |---------------|---------------|---------------|--0--1--(1)-3-3--|

|
| Gtr III
| Q E E +H Q E E +H Q E E +H Q Q +E E Q
 
 |---------------|---------------|---------------|-----------------|
 |----3----------|------1-(1)----|---------------|-10--6--(6)-8-8--|
 |------5-(5)----|----4----------|------5-(5)----|--9--5--(5)-7-7--|
 |---------------|---------------|----4----------|--7--3--(3)-5-5--|
 |-0-------------|-0-------------|-0-------------|-----------------|
 |---------------|---------------|---------------|-----------------|

W W W
[A5]H +E [G/BC5]Q E W [D5]H +E [E5]Q [F5] E H +E [Bb5]E +S E.
 
 |-----------------|---------------|--------------------|-----------------------|
 |-----------------|---------------|--------------------|-----------------------|
 |-2------(2)----5-|-5-------------|-7------(7)-9----10-|-10----(10)---3-(3)-3--|
 |-2------(2)----5-|-5-------------|-7------(7)-9----10-|-10----(10)---3-(3)-3--|
 |-0------(0)-2--3-|-3-------------|-5------(5)-7-----8-|--8-----(8)---1-(1)-1--|
 |------------3----|---------------|--------------------|-----------------------|

|
| Q E E +H Q E E +H Q E E +Q E E H S S E +S E.
 
 |-----------------|---------------|--------------------|-----------------------|
 |----3-1-(1)------|------1-(1)----|---------------1p=0-|--1--------------------|
 |-----------------|----4----------|------5-(5)---------|--------------3-(3)-3--|
 |-----------------|---------------|----4-------2-------|--3-----------3-(3)-3--|
 |-0------(0)-2--3-|-3-------------|-5------------------|---------1--1-1-(1)-1--|
 |-----------------|---------------|--------------------|-----------------------|

H +E Q E W H E Q. H H
Keyboard Solo
[Em]Gtr I[Em9] [Em6] [C/E] [D6]
~~~~~~ ~~~~~~ ~~~~~~
Q E E +H Q E E +H Q E E +H Q E E +E E E E
 
 |---------------|---------------|---------------|------------------|
 |---------------|---------------|---------------|----------------0-|
 |------0-(0)----|------0-(0)----|------0-(0)----|------0-(0)---2---|
 |----7----------|----4----------|---------------|------------0-----|
 |---------------|---------------|----4----------|----3-------------|
 |-0-------------|-0-------------|-0-------------|-0----------------|

[Em] ~~~~~~ [Em9] ~~~~~~ [Em6] ~~~~~~[C/E] [F+11]
Q E E +H Q E E +H Q E E +H Q E E +E E E E
 
 |---------------|---------------|---------------|------------------|
 |---------------|---------------|---------------|----------------0-|
 |------0-(0)----|------0-(0)----|------0-(0)----|------0-(0)---2---|
 |----7----------|----4----------|---------------|------------------|
 |---------------|---------------|----4----------|----3-------------|
 |-0-------------|-0-------------|-0-------------|-0----------1-----|

[Em] [Em9] [Em6] [C/E] 
[E] [E] [E] [E] [+B] [E] [E] [E] [E] [+B] [E] [E] [E] [E] [+B] [E] [E] [E] [E] [+B]  
 
 |--------0--(0)----|--------0--(0)----|-------0-(0)----|----------8--(8)----|
 |--------0--(0)----|-------10-(10)----|-------7-(7)----|----------8--(8)----|
 |-------11-(11)----|--------0--(0)----|-------0-(0)----|---------11-(11)----|
 |-----9------------|-----7------------|-----5----------|------12------------|
 |---7--------------|---9--------------|---4------------|---10---------------|
 |-0----------------|-0----------------|-0--------------|-8------------------|

W W W W
[Em]Gtr I[Em9]
E. S E E S S E S S E E. S E E S S E S S E
 
 |-----------------------------|-----------------------------|
 |--------12-12-12-12-12-12-12-|--------15-15-15-15-15-15-15-|
 |--------11-11-11-11-11-11-11-|--------14-14-14-14-14-14-14-|
 |---------9--9--9--9--9--9--9-|--------12-12-12-12-12-12-12-|
 |--------10-10-10-10-10-10-10-|--------14-14-14-14-14-14-14-|
 |-0--0-0----------------------|-0--0-0----------------------|

|
| Gtr II
| W W
 
 |-----------------------------|-----------------------------|
 |-----------------------------|-----------------------------|
 |-----------------------------|-----------------------------|
 |-----------------------------|-----------------------------|
 |-----------------------------|-----------------------------|
 |-----------------------------|-----------------------------|

[Em6]E. S E E S S E S S E [C/E]E. S E [F5] E S S E S S E
 
 |-----------------------------|-----------------------------------|
 |--------12-12-12-12-12-12-12-|--------12-12-12-12---12-12-12-----|
 |---------9--9--9--9--9--9--9-|--------12-12-12-12---12-12-12-----|
 |--------11-11-11-11-11-11-11-|--------10-10-10-10---10-10-10-----|
 |--------10-10-10-10-10-10-10-|---------8--8--8--8----8--8--8-----|
 |-0--0-0----------------------|-0--0-0----------------------------|

|
| W Q E E S S S S S S S S
 
 |-----------------------------|-----------------------------------|
 |-----------------------------|-----------------------------------|
 |-----------------------------|-----------------------------------|
 |-----------------------------|---------3--3--3--3----3--3--3-----|
 |-----------------------------|---------3--3--3--3----3--3--3-----|
 |-----------------------------|---------1--1--1--1----1--1--1-----|

Guitar Solo
[E5]Gtr III[C5]
~~~~~~~~~ ~~~~~~~~~
E. +S +E E +E Q. E. +S +E E +E Q.
 
 |-------------------------|-------------------------|
 |-7b8==(7)r(7)-5-(5)------|-7b8==(7)r(7)-5-(5)------|
 |--------------------4----|--------------------5----|
 |-------------------------|-------------------------|
 |-------------------------|-------------------------|
 |-------------------------|-------------------------|

|
| W W
 
 |-------------------------|-------------------------|
 |-------------------------|-------------------------|
 |-------------------------|-5-----------------------|
 |-2-----------------------|-5-----------------------|
 |-2-----------------------|-3-----------------------|
 |-0-----------------------|-------------------------|

[C#sus2] ~~~~~~~~~~~~~[G5]~~~~~ [B5]~
 
 |-----6-----| |----6----|

Q +E E +Q. E +S S S S S S S S S S S S H
 
 |-----------9-(9)---10-|-(10)-9-7-------------------------|
 |----------------------|----------10-8-7------------------|
 |-9b11r=(9)------------|-----------------9-7-6------------|
 |----------------------|-----------------------9-7-5------|
 |----------------------|-----------------------------9----|
 |----------------------|----------------------------------|

|
| W H H
 
 |----------------------|----------------------------------|
 |-4--------------------|----------------------------------|
 |-6--------------------|-----------------------------4----|
 |-6--------------------|---5-------------------------4----|
 |-4--------------------|---5-------------------------2----|
 |----------------------|---3------------------------------|

[E5] ~~~~~~~~~~~ [C5] ~~~~~~~~~~~
E. +S +E E +E Q. E. +S +E E +E Q.
 
 |-14b15==(14)r(14)-12-(12)-------|-14b15==(14)r(14)-12-(12)-------|
 |--------------------------12----|--------------------------13----|
 |--------------------------------|--------------------------------|
 |--------------------------------|--------------------------------|
 |--------------------------------|--------------------------------|
 |--------------------------------|--------------------------------|

|
| W W
 
 |--------------------------------|--------------------------------|
 |--------------------------------|--------------------------------|
 |--------------------------------|--5-----------------------------|
 |--2-----------------------------|--5-----------------------------|
 |--2-----------------------------|--3-----------------------------|
 |--0-----------------------------|--------------------------------|

[C#sus2]  
 
 |------6-------| |------6-------| |------6-------| |------6-------|

S S S S S S S S S S S S S S S S S S S S S S S S
 
 |-16-12-16-12----12-16-12-16-12----12-17-12-17-12----12-16-12-16-12----12---|
 |-------------14----------------14----------------14----------------14------|
 |---------------------------------------------------------------------------|
 |---------------------------------------------------------------------------|
 |---------------------------------------------------------------------------|
 |---------------------------------------------------------------------------|

|
| W
 
 |---------------------------------------------------------------------------|
 |--4------------------------------------------------------------------------|
 |--6------------------------------------------------------------------------|
 |--6------------------------------------------------------------------------|
 |--4------------------------------------------------------------------------|<br /

Important: The song above is NOT stored on the Chordie server. The original song is hosted at www.guitaretab.com. Chordie works as a search engine and provides on-the-fly formatting. Chordie does not index songs against artists'/composers' will. To remove this song please click here.

Text color:
Chord color:
Chord grids: 
Font size:    
Page size: 

A/C# A5 B B5 Bb5 Bbsus2 C C#sus2 C/E C5 C5/E D5 D5/A D6 E E5 E9 Em Em6 Em9 Esus4 F#5 F+11 F5 G G#sus4 G5 Gsus2 Gsus4
Rate #1 of 6 versions

Jango Player

Login - add to songbook

SHARE PAGE  




You need to log in to post comments