Guitar Tabs, Chords and Lyrics
Major upgrade!! After one year development the new version of Chordie is now online! Please give feedback.


Endless Sacrifice  Dream Theater

Band - Dream Theater
Song - Endless Sacrifice
Album - Train Of Thought
Tuning - DGCFAD
Intro
Moderately Q=88
Emadd9 C C# B
[4/4] Gtr I
[E] [E] [E] [E] [E] [E] [E] [E] [E] [E] [E] [E] [E] [E] [E] [E]  
 
 ||------------------|-----------------|
 ||o-----------------|-----------------|
 ||----------0-------|-----0-----------|
 ||------2-4---4-2---|---2---2---2---4-|
 ||o---2-----------2-|-3-------4---2---|
 ||--0---------------|-----------------|

Emadd9 C G N.C.
[6/4]  
[E] [E] [E] [E] [E] [E] [E] [E] [E] [E] [E] [E] [E] [E] [E] [E] [E] [E] [E] [E]  
 
 |-----------------|--------------------------|
 |-----------------|--------------------------|
 |---------0-------|-----0--------------------|
 |-----2-4---4-2---|---2---2-----0------------|
 |---2-----------2-|-3---------2---2---5-3-2--|
 |-0---------------|---------3-------2--------|

[Emadd9] [C] [Dadd4]  
[4/4]  
[E] [E] [E] [E] [E] [E] [E] [E] [E] [E] [E] [E] [E] [E] [E] [E]  
 
 |-----------------|------------------|
 |-----------------|------------------|
 |---------0-------|-----0--------0---|
 |-----2-4---4-2---|---2---2----4---4-|
 |---2-----------2-|-3-------/5-------|
 |-0---------------|------------------|

Emadd9 C G B7 N.C.
[7/4]  
[E] [E] [E] [E] [E] [E] [E] [E] [E] [E] [E] [E] [E] [E] [E] [E] [E] [E] [E] [E] [E] [E]  
 
 |-----------------|-------------------------------||
 |-----------------|------------------------------o||
 |---------0-------|-----0-------------------------||
 |-----2-4---4-2---|---2---2-----0--------7--------||
 |---2-----------2-|-3---------2--------6---------o||
 |-0---------------|---------3-----3-/7-----7-8-7--||

Verse_1
Emadd9 C C# B
[4/4]  
[E] [E] [E] [E] [E] [E] [E] [E] [E] [E] [E] [E] [E] [E] [E] [E]  
 
 ||------------------|-----------------|
 ||o-----------------|-----------------|
 ||----------0-------|-----0-----------|
 ||------2-4---4-2---|---2---2---2---4-|
 ||o---2-----------2-|-3-------4---2---|
 ||--0---------------|-----------------|

Emadd9 C G N.C.
[6/4]  
[E] [E] [E] [E] [E] [E] [E] [E] [E] [E] [E] [E] [E] [E] [E] [E] [E] [E] [E] [E]  
 
 |-----------------|--------------------------|
 |-----------------|--------------------------|
 |---------0-------|-----0--------------------|
 |-----2-4---4-2---|---2---2-----0------------|
 |---2-----------2-|-3---------2---2---5-3-2--|
 |-0---------------|---------3-------2--------|

[Emadd9] [C] [Dadd4]  
[4/4]  
[E] [E] [E] [E] [E] [E] [E] [E] [E] [E] [E] [E] [E] [E] [E] [E]  
 
 |-----------------|------------------|
 |-----------------|------------------|
 |---------0-------|-----0--------0---|
 |-----2-4---4-2---|---2---2----4---4-|
 |---2-----------2-|-3-------/5-------|
 |-0---------------|------------------|

Emadd9 C G B7 N.C.
[7/4]  
[E] [E] [E] [E] [E] [E] [E] [E] [E] [E] [E] [E] [E] [E] [E] [E] [E] [E] [E] [E] [E] [E]  
 
 |-----------------|-------------------------------||
 |-----------------|------------------------------o||
 |---------0-------|-----0-------------------------||
 |-----2-4---4-2---|---2---2-----0--------7--------||
 |---2-----------2-|-3---------2--------6---------o||
 |-0---------------|---------3-----3-/7-----7-8-7--||

[Amadd9] [Cmaj7/F#Cmaj7sus4/Amadd9] [Dm] [E/G#] 
[4/4] E E E E E E E E E E E E E E E E E E E E E E E E [5/4] E E S S E E E E E E E
 
 |-----------------|-----------------|-----------------|-----1p0---------------|
 |---------1-------|-----0-------0---|---------1-------|---------3---------5---|
 |-----2-4---4-2---|---5---5---5---5-|-----2-4---4-2---|---2-----------4-----4-|
 |---2-----------2-|-4-------3-------|---2-----------2-|-0-----------2---2-----|
 |-0---------------|-----------------|-0---------------|-----------------------|
 |-----------------|-----------------|-----------------|-----------4-----------|

[Amadd9] [Cmaj7/F#G] [Amadd9] 
[4/4]  
[E] [E] [E] [E] [E] [E] [E] [E] [E] [E] [E] [E] [E] [E] [E] [E] [E] [E] [E] [E] [E] [E] [E] [E]  
 
 |-----------------|-----------------|-----------------|
 |---------1-------|-----0-----------|---------1-------|
 |-----2-4---4-2---|---5---5-----0---|-----2-4---4-2---|
 |---2-----------2-|-4---------0---0-|---2-----------2-|
 |-0---------------|-----------------|-0---------------|
 |-----------------|---------3-------|-----------------|

[D5/F#]E E E E [Fadd6]E E Q [C]E E Q [Dadd4]E E E E
 
 |----------------|------------------||
 |----------------|------------------||
 |----------------|-----0------0-----||
 |-----0-------0--|---2------7---7---||
 |---0---0---3----|-3------5---------||
 |-2-------1------|------------------||

Chorus_1
[E5]Gtr I[G5A5E5]I[G5A5E5] [G5A5E5] [B5C5] [F#5]
PM PM PM PM
E. S S S E +S S S S E E E. S S S E +S S S S E E
 
 ||-----------------------------|--------------------------|
 ||o----------------------------|--------------------------|
 ||-----------------------------|------------------4s5-4---|
 ||--2----5s7-2-(2)---5s7-2-----|-2----5s7-2-(2)---4s5-4-4-|
 ||o-2--2-5s7-2-(2)-2-5s7-2--|-2--2-5s7-2-(2)-2-2s3-2-4-|
 ||--0--0-3s5-0-(0)-0-3s5-0-----|-0--0-3s5-0-(0)-0-------2-|

E5 G5A5E5 G5A5E5 G5A5E5N.C.
 
 PM PM PM PM------------|

E. S S S E +S S S S E E E. S S S E S S S S S S S S
 
 |----------------------------|-----------------------------||
 |----------------------------|----------------------------o||
 |----------------------------|-----------------------------||
 |-2----5s7-2-(2)---5s7-2-----|-2----5s7-2------------------||
 |-2--2-5s7-2-(2)-2-5s7-2--|-2--2-5s7-2-3-3-3-3-5-5-5-5-o||
 |-0--0-3s5-0-(0)-0-3s5-0-----|-0--0-3s5-0------------------||

[E5] [F#5] [A5] [B5]PM[C5]
H H W H. +E E H H
 
 ||-------(0)----|----------|---------------|-----------||
 ||o------(0)----|----------|---------------|----------o||
 ||--4----(4)----|----------|-2-------(2)---|-5---------||
 ||--2----(2)----|----------|-2-------(2)-4-|-5----7----||
 ||o-2----(2)----|-4--------|-0-------(0)-2-|-3----6---o||
 ||--0----(0)----|-2--------|---------------|-----------||

Verse_2
Emadd9 C C# B
Gtr I
[E] [E] [E] [E] [E] [E] [E] [E] [E] [E] [E] [E] [E] [E] [E] [E]  
 
 |-----------------|-----------------|
 |-----------------|-----------------|
 |---------0-------|-----0-----------|
 |-----2-4---4-2---|---2---2---2---4-|
 |---2-----------2-|-3-------4---2---|
 |-0---------------|-----------------|

Emadd9 C G N.C.
[6/4]  
[E] [E] [E] [E] [E] [E] [E] [E] [E] [E] [E] [E] [E] [E] [E] [E] [E] [E] [E] [E]  
 
 |-----------------|--------------------------|
 |-----------------|--------------------------|
 |---------0-------|-----0--------------------|
 |-----2-4---4-2---|---2---2-----0------------|
 |---2-----------2-|-3---------2---2---5-3-2--|
 |-0---------------|---------3-------2--------|

[Emadd9] [C] [Dadd4]  
[4/4]  
[E] [E] [E] [E] [E] [E] [E] [E] [E] [E] [E] [E] [E] [E] [E] [E]  
 
 |-----------------|------------------|
 |-----------------|------------------|
 |---------0-------|-----0--------0---|
 |-----2-4---4-2---|---2---2----4---4-|
 |---2-----------2-|-3-------/5-------|
 |-0---------------|------------------|

Emadd9 C G B7 N.C.
[7/4]  
[E] [E] [E] [E] [E] [E] [E] [E] [E] [E] [E] [E] [E] [E] [E] [E] [E] [E] [E] [E] [E] [E]  
 
 |-----------------|------------------------------|
 |-----------------|------------------------------|
 |---------0-------|-----0------------------------|
 |-----2-4---4-2---|---2---2-----0--------7-------|
 |---2-----------2-|-3---------2--------6---------|
 |-0---------------|---------3-----3-/7-----7-8-7-|

Emadd9 C C# B
[4/4] Gtr I
[E] [E] [E] [E] [E] [E] [E] [E] [E] [E] [E] [E] [E] [E] [E] [E]  
 
 |-----------------|-----------------|
 |-----------------|-----------------|
 |---------0-------|-----0-----------|
 |-----2-4---4-2---|---2---2---2---4-|
 |---2-----------2-|-3-------4---2---|
 |-0---------------|-----------------|

|
| Gtr II
 
 | PM---------------------------------

| E E E E E E E E E E E E E E E E
 
 |-----------------|-----------------|
 |-----------------|-----------------|
 |---------0-------|-----0-----------|
 |-----2-4---4-2---|---2---2---2---4-|
 |---2-----------2-|-3-------4---2---|
 |-0---------------|-----------------|

Emadd9 C G N.C.
[6/4]  
[E] [E] [E] [E] [E] [E] [E] [E] [E] [E] [E] [E] [E] [E] [E] [E] [E] [E] [E] [E]  
 
 |-----------------|---------------------------|
 |-----------------|---------------------------|
 |---------0-------|-----0---------------------|
 |-----2-4---4-2---|---2---2-----0-------------|
 |---2-----------2-|-3---------2---2---5-3-2---|
 |-0---------------|---------3-------2---------|

|
 
 |-----------------------------------------|

| E E E E E E E E E E E E E E E E E E E E
 
 |-----------------|---------------------------|
 |-----------------|---------------------------|
 |---------0-------|-----0---------------------|
 |-----2-4---4-2---|---2---2-----0-------------|
 |---2-----------2-|-3---------2---2---5-3-2---|
 |-0---------------|---------3-------2---------|

[Emadd9] [C] [Dadd4]  
[4/4]  
[E] [E] [E] [E] [E] [E] [E] [E] [E] [E] [E] [E] [E] [E] [E] [E]  
 
 |-----------------|------------------|
 |-----------------|------------------|
 |---------0-------|-----0--------0---|
 |-----2-4---4-2---|---2---2----4---4-|
 |---2-----------2-|-3-------/5-------|
 |-0---------------|------------------|

|
 
 | PM----------------------------------

| E E E E E E E E E E E E E E E E
 
 |-----------------|------------------|
 |-----------------|------------------|
 |---------0-------|-----0--------0---|
 |-----2-4---4-2---|---2---2----4---4-|
 |---2-----------2-|-3-------/5-------|
 |-0---------------|------------------|

Emadd9 C G B7 N.C.
[7/4]  
[E] [E] [E] [E] [E] [E] [E] [E] [E] [E] [E] [E] [E] [E] [E] [E] [E] [E] [E] [E] [E] [E]  
 
 |-----------------|------------------------------|
 |-----------------|------------------------------|
 |---------0-------|-----0------------------------|
 |-----2-4---4-2---|---2---2-----0--------7-------|
 |---2-----------2-|-3---------2--------6---------|
 |-0---------------|---------3-----3-/7-----7-8-7-|

|
 
 |----------------------------------------------|

| E E E E E E E E E E E E E E E E E E E E E E
 
 |-----------------|------------------------------|
 |-----------------|------------------------------|
 |---------0-------|-----0------------------------|
 |-----2-4---4-2---|---2---2-----0--------7-------|
 |---2-----------2-|-3---------2--------6---------|
 |-0---------------|---------3-----3-/7-----7-8-7-|

[Amadd9] [Cmaj7/F#Cmaj7sus4/Amadd9] [Dm] [E/G#] 
[4/4] E E E E E E E E E E E E E E E E E E E E E E E E [5/4] E E S S E E E E E E E
 
 |-----------------|-----------------|-----------------|-----1p0---------------|
 |---------1-------|-----0-------0---|---------1-------|---------3---------5---|
 |-----2-4---4-2---|---5---5---5---5-|-----2-4---4-2---|---2-----------4-----4-|
 |---2-----------2-|-4-------3-------|---2-----------2-|-0-----------2---2-----|
 |-0---------------|-----------------|-0---------------|-----------------------|
 |-----------------|-----------------|-----------------|-----------4-----------|

|
 
 | PM------------------------------------------------------------------------|

| E E E E E E E E E E E E E E E E E E E E E E E E E E S S E E E E E E E
 
 |-----------------|-----------------|-----------------|-----1p0---------------|
 |---------1-------|-----0-------0---|---------1-------|---------3---------5---|
 |-----2-4---4-2---|---5---5---5---5-|-----2-4---4-2---|---2-----------4-----4-|
 |---2-----------2-|-4-------3-------|---2-----------2-|-0-----------2---2-----|
 |-0---------------|-----------------|-0---------------|-----------------------|
 |-----------------|-----------------|-----------------|-----------4-----------|

[Emadd9] [Cmaj7/F#G] [Emadd9] 
[4/4]  
[E] [E] [E] [E] [E] [E] [E] [E] [E] [E] [E] [E] [E] [E] [E] [E] [E] [E] [E] [E] [E] [E] [E] [E]  
 
 |-----------------|-----------------|-----------------|
 |---------1-------|-----0-----------|---------1-------|
 |-----2-4---4-2---|---5---5-----0---|-----2-4---4-2---|
 |---2-----------2-|-4---------0---0-|---2-----------2-|
 |-0---------------|-----------------|-0---------------|
 |-----------------|---------3-------|-----------------|

|
 
 | PM---------------------------------------------------

| E E E E E E E E E E E E E E E E E E E E E E E E
 
 |-----------------|-----------------|-----------------|
 |---------1-------|-----0-----------|---------1-------|
 |-----2-4---4-2---|---5---5-----0---|-----2-4---4-2---|
 |---2-----------2-|-4---------0---0-|---2-----------2-|
 |-0---------------|-----------------|-0---------------|
 |-----------------|---------3-------|-----------------|

[D5/F#]E E E E [Fadd6]E E Q [C]E E Q [Dadd4]E E E E
 
 |----------------|------------------||
 |----------------|------------------||
 |----------------|-----0------0-----||
 |-----0-------0--|---2------7---7---||
 |---0---0---3----|-3------5---------||
 |-2-------1------|------------------||

|
 
 |-------|

| E E E E E E Q E E Q E E Q
 
 |----------------|------------------||
 |----------------|------------------||
 |----------------|-----0------0-----||
 |-----0-------0--|---2------7-------||
 |---0---0---3----|-3------5---------||
 |-2-------1------|------------------||

Chorus_2
[E5]Gtr I[G5A5E5]I[G5A5E5] [G5A5E5] [B5C5B5F#5]
PM PM PM PM
E. S S S E +S S S S E E E. S S S E +S S S S E E
 
 ||-----------------------------|--------------------------|
 ||o----------------------------|--------------------------|
 ||-----------------------------|------------------4s5-4---|
 ||--2----5s7-2-(2)---5s7-2-----|-2----5s7-2-(2)---4s5-4-4-|
 ||o-2--2-5s7-2-(2)-2-5s7-2--|-2--2-5s7-2-(2)-2-2s3-2-4-|
 ||--0--0-3s5-0-(0)-0-3s5-0-----|-0--0-3s5-0-(0)-0-------2-|

E5 G5A5E5 G5A5E5 G5A5E5N.C.
 
 PM PM PM PM------------|

E. S S S E +S S S S E E E. S S S E S S S S S S S S
 
 |----------------------------|-----------------------------||
 |----------------------------|----------------------------o||
 |----------------------------|-----------------------------||
 |-2----5s7-2-(2)---5s7-2-----|-2----5s7-2------------------||
 |-2--2-5s7-2-(2)-2-5s7-2--|-2--2-5s7-2-3-3-3-3-5-5-5-5-o||
 |-0--0-3s5-0-(0)-0-3s5-0-----|-0--0-3s5-0------------------||

[E5]E. S [G5A5E5]S S E +S S [G5A5E5]S S E E
 
 ||-----------------------------|
 ||o----------------------------|
 ||-----------------------------|
 ||--2--2-5s7-2-(2)-2-5s7-2-----|
 ||o-2--2-5s7-2-(2)-2-5s7-2--|
 ||--0--0-3s5-0-(0)-0-3s5-0-----|

[E5]E. S [G5A5E5]S S E +S S [B5C5B5F#5]S S E E [E5]E. S [G5A5E5]S S E +S S [G5A5E5]S S E E
 
 |--------------------------|-----------------------------|
 |--------------------------|-----------------------------|
 |------------------4s5-4---|-----------------------------|
 |-2--2-5s7-2-(2)-2-4s5-4-4-|-2--2-5s7-2-(2)-2-5s7-2------|
 |-2--2-5s7-2-(2)-2-2s3-2-4-|-2--2-5s7-2-(2)-2-5s7-2---|
 |-0--0-3s5-0-(0)-0-------2-|-0--0-3s5-0-(0)-0-3s5-0------|

1. 2.
[E5] [G5A5E5C5] [D5] [E5] [G5A5E5C5] [D5]  
 
 PM--------|

|-3-|
E. S S S E S S S S S S S S E. S S S E S. T S S E E E
 
 |-----------------------------||---------------------------||
 |----------------------------o||---------------------------||
 |-----------------------------||------------5--------7-7-7-||
 |-2----5s7-2-5-5-5-5-7-7-7-7--||-2----5s7-2-5--5-5-5-7-7-7-||
 |-2--2-5s7-2-3-3-3-3-5-5-5-5-o||-2--2-5s7-2-3--3-3-3-5-5-5-||
 |-0--0-3s5-0------------------||-0--0-3s5-0----------------||

Interlude I
Fast Q=156
[E5]Gtr II
W +W +W +W
 
 |----------|----------------|----------------------|----------------------|
 |----------|----------------|----------------------|----------------------|
 |-4--------|-(4)------------|-(4)------------------|-(4)------------------|
 |-2--------|-(2)------------|-(2)------------------|-(2)------------------|
 |-2--------|-(2)------------|-(2)------------------|-(2)------------------|
 |-0--------|-(0)------------|-(0)------------------|-(0)------------------|

|
| Gtr III
 
 | PM-------| PM----------------------|

| W H. Q S S E E E Q S S E S S E E E S S E Q
 
 |----------|----------------|----------------------|----------------------|
 |----------|----------------|----------------------|----------------------|
 |----------|----------------|-------------5--------|----------------------|
 |----------|----------------|-------------4--------|-------------------1--|
 |----------|----------------|----------------------|-------------------1--|
 |----------|----------/12\--|--3--2-0-0-0----3-2-0-|--3--2-0-0-0-3-2-0----|

[E5/B] Q Q H W
 
 |--------------------------------------|-------------------------------|
 |--------------------------------------|-------------------------------|
 |--4-----------------------------------|-------------------------------|
 |--2-----------------------------------|-------------------------------|
 |--2-----------------------------------|-------------------------------|
 |--------------------------------------|-------------------------------|

|
 
 | PM-------------| PM-------------------------------|

| S S E E E Q S S E S S E E E q Q
 
 |--------------------------------------|-------------------------------|
 |--------------------------------------|-------------------------------|
 |---------------------(5)--------------|-------------------------------|
 |---------------------(4)--------------|-------------------------------|
 |--------------------------------------|-------------------------------|
 |-(3)-(2)-(0)-(0)-(0)------(3)-(2)-(0)-|-(3)-(2)-(0)-(0)-(0)-(0)-------|

N.C.
Gtr II
 
 PM------| PM--------------------|

S S E E E Q S S E S S E E E S S E Q
 
 ||---------------------|--------------------|
 ||o--------------------|--------------------|
 ||------------5--------|--------------------|
 ||------------4--------|-----------------1--|
 ||o--------------------|-----------------1--|
 ||--3-2-0-0-0----3-2-0-|-3-2-0-0-0-3-2-0----|
 PM------| PM--------------------|

S S E E E Q S S E S S E E E S S E Q 5x
 
 |--------------------|---------------------||
 |--------------------|--------------------o||
 |-----------5--------|---------------------||
 |-----------4--------|-----------------1---||
 |--------------------|-----------------1--o||
 |-3-2-0-0-0----3-2-0-|-3-2-0-0-0-3-2-0-----||

C5 N.C. C5 Bb5
 
 PM----------| PM--------| PM|

E E S S E E E Q E E S S S S E S S Q
 
 ||-------------------|----------------------|
 ||o------------------|----------------------|
 ||----------------5--|-------------5-----3--|
 ||----------------5--|-------------5-----3--|
 ||o---------------3--|-------------3-----1--|
 ||--2-2-5-3-2-2-2----|-2-2-5-4-3-2---2-2----|

N.C. C5 N.C. C5B5Bb5
 
 PM----------| PM--------|

E E S S E E E Q E E S S S S E E Q
 
 |------------------|----------------------||
 |------------------|---------------------o||
 |---------------5--|-------------5-4-3----||
 |---------------5--|-------------5-4-3----||
 |---------------3--|-------------3-2-1---o||
 |-2-2-5-3-2-2-2----|-2-2-5-4-3-2----------||

N.C.
7/8
E E E E E E E E E E E E E E Q E E E E E E E E E E E E E E E
 
 ||------------------|----------------|------------------|----------------||
 ||o-----------------|----------------|------------------|---------------o||
 ||------------------|----------------|---9--------7-----|---8---9--------||
 ||----2-------------|----------------|-7---7------------|-7---9----------||
 ||o-----------5-----|-3---5-6-7---3--|-------10-9---5-6-|-------------2-o||
 ||--5---5-3-2---2-1-|---1-------3----|------------------|---------0-1----||

7/8 4/4
E E E E E E E E E E E E E S E +S
 
 ||----------------|-------------------------|
 ||o---------------|-------------------------|
 ||----------------|----------------11-(11)\-|
 ||------5-4-----7-|-----9-7-----10----------|
 ||o-0-2-----0-3---|-0-------0-7-------------|
 ||----------------|---8---------------------|

7/8 4/4
E E E E E E E E E E E E E S E +S
 
 |-------------------|----------------------------||
 |-------------------|------------------13-(13)\-o||
 |-------------------|-----11-9------11-----------||
 |-----12-10------14-|---7--------10--------------||
 |-0-9-------0-10----|-0--------0----------------o||
 |-------------------|----------------------------||

4/4 11/8 5/8
E E E E E E E E E E E E E E E E E S E S E E E E E E E E E E
 
 |-----------------|-------------------------------|-------6---|----------10----|
 |-----------------|--------------------------14---|-9-------7-|-13----------11-|
 |---------------8-|-----9--------11-------12------|---7-------|----11----------|
 |-----5-------7---|---8-------10----10-11---------|-----6-----|-------10-------|
 |-3-4---4-5-6-----|-7-----8-9---------------------|-----------|----------------|
 |-----------------|-------------------------------|-----------|----------------|

6/8 3/4
 
 |--3--| |-3--| |-3--|

[E] [E] [E] [E] [E] [E] [E] [E] [E] [E] [E] [E] [E] [E] [E] [E] [E] [E] [E] [E] [E]  
 
 |------------------|---------------|-------------------------||
 |-13---------------|-10------------|-------------------------||
 |----9-10-11-------|----6-7-8------|-10-------------9-8------||
 |------------12----|----------9----|----11-------10-----9----||
 |---------------13-|------------10-|-------12-11----------10-||
 |------------------|---------------|-------------------------||

[4/4]  
 
 PM----------| PM------| PM|

E E S S E E E Q E E S S E E S S Q
 
 |------------------|--------------------|
 |------------------|--------------------|
 |---------------5--|-----------5-----3--|
 |-4-4-7-5-4-4-4----|-4-4-7-5-4---4-4----|
 |------------------|--------------------|
 |------------------|--------------------|
 PM----------| PM--------|

E E S S E E E Q E E S S S S E E Q
 
 |------------------|---------------------|
 |------------------|---------------------|
 |---------------5--|-------------5-4-3---|
 |-4-4-7-5-4-4-4----|-4-4-7-6-5-4---------|
 |------------------|---------------------|
 |------------------|---------------------|

C5 N.C. C5 Bb5
 
 PM----------| PM--------| PM|

E E S S E E E Q E E S S S S E S S Q
 
 |------------------|----------------------|
 |------------------|----------------------|
 |---------------5--|-------------5-----3--|
 |---------------5--|-------------5-----3--|
 |---------------3--|-------------3-----1--|
 |-2-2-5-3-2-2-2----|-2-2-5-4-3-2---2-2----|

N.C. C5 N.C. C5B5Bb5
 
 PM----------| PM------------|

E E S S E E E Q E E S S S S E E Q
 
 |------------------|----------------------||
 |------------------|----------------------||
 |---------------5--|-----------------3----||
 |---------------5--|-------------5-4-3----||
 |---------------3--|-------------3-2-1----||
 |-2-2-5-3-2-2-2----|-2-2-5-4-3-2----------||

[4/4] W W W [3/4] W
 
 |----------|----------|----------|------||
 |----------|----------|----------|------||
 |----------|----------|----------|------||
 |----------|----------|----------|------||
 |----------|----------|----------|------||
 |----------|----------|----------|------||

Synth Solo I
N.C.
[4/4]  
 
 PM------| PM--------------------|

S S E E E Q S S E S S E E E S S E Q
 
 ||---------------------|--------------------|
 ||o--------------------|--------------------|
 ||------------5--------|--------------------|
 ||------------4--------|-----------------1--|
 ||o--------------------|-----------------1--|
 ||--3-2-0-0-0----3-2-0-|-3-2-0-0-0-3-2-0----|
 PM------| PM--------------------|

S S E E E Q S S E S S E E E S S E Q
 
 |--------------------|----------------------||
 |--------------------|---------------------o||
 |-----------5--------|----------------------||
 |-----------4--------|-----------------1----||
 |--------------------|-----------------1---o||
 |-3-2-0-0-0----3-2-0-|-3-2-0-0-0-3-2-0------||

C5 N.C. C5 Bb5
 
 PM----------| PM--------| PM|

E E S S E E E Q E E S S S S E S S Q
 
 ||-------------------|----------------------|
 ||o------------------|----------------------|
 ||----------------5--|-------------5-----3--|
 ||----------------5--|-------------5-----3--|
 ||o---------------3--|-------------3-----1--|
 ||--2-2-5-3-2-2-2----|-2-2-5-4-3-2---2-2----|

N.C. C5 N.C. C5B5Bb5
 
 PM----------| PM--------|

E E S S E E E Q E E S S S S E E Q
 
 |------------------|----------------------||
 |------------------|---------------------o||
 |---------------5--|-------------5-4-3----||
 |---------------5--|-------------5-4-3----||
 |---------------3--|-------------3-2-1---o||
 |-2-2-5-3-2-2-2----|-2-2-5-4-3-2----------||

Guitar Solo I
N.C.
Gtr III
S S S S S S S S S S S S S S S S
 
 |-------------------------------------------------|
 |-------12-15----12-------12-15----12-------12-15-|
 |-12-15-------15-------15-------15----12-15-------|
 |-------------------14----------------------------|
 |-------------------------------------------------|
 |-------------------------------------------------|

|
| Gtr II
 
 | PM---------------| PM----------

| S S E E E Q S S E
 
 |-------------------------------------------------|
 |-------------------------------------------------|
 |--------------------------5----------------------|
 |--------------------------4----------------------|
 |-------------------------------------------------|
 |--3--2--0-----0-----0-----------------3--2--0----|

S S S S S S S S S S S S S S S S S S S S S S S S S S S S S S S S
 
 |----------------------------------------12-------|-12-15----12-------------------------------------|
 |----12-------12-15----12-------12-15-15----15-16-|-------15----15-15-12-15----12-------------------|
 |-15-------15-------15----14-15-------------------|-------------------------15----14-15-11-12----11-|
 |-------14----------------------------------------|-------------------------------------------14----|
 |-------------------------------------------------|-------------------------------------------------|
 |-------------------------------------------------|-------------------------------------------------|

|
 
 |-------------------------------| PM---------------| PM---|

| S S E E E S S E Q S S E E E Q S S E
 
 |-------------------------------------------------|-------------------------------------------------|
 |-------------------------------------------------|-------------------------------------------------|
 |-------------------------------------------------|--------------------------5----------------------|
 |--------------------------------------1----------|--------------------------4----------------------|
 |--------------------------------------1----------|-------------------------------------------------|
 |--3--2--0-----0-----0-----3--2--0----------------|--3--2--0-----0-----0-----------------3--2--0----|

~~~
S S S S S S S S S S E +E +E
 
 |------------------------------------------|
 |------------------------------------------|
 |------------------------------------------|
 |-12-14-10-12----10------------------------|
 |-------------14----12-14-10-12-9-(9)-(9)\-|
 |------------------------------------------|

|
 
 | PM---------------------------|

| S S E E E S S E Q
 
 |------------------------------------------|
 |------------------------------------------|
 |------------------------------------------|
 |----------------------------------1-------|
 |----------------------------------1-------|
 |--3--2--0-----0-----0-----3--2-0----------|

~~~~
 
 |-------6-------| |------6-------| |------6-------| |-------6--------|

S S S S S S S S S S S S S S S S S S S S S S S S E +E +H +Q
 
 |-----------------------------------------------------------------19-20-22-|-22b24====(22)-(22)---------(22)r\----|
 |---------------------------------------------12-13-15-19-20---22----------|--------------------------------------|
 |---------------------------11-12-14-11-12-14------------------------------|--------------------------------------|
 |-----------9-10-12-9-10-12------------------------------------------------|--------------------------------------|
 |-9-10---12----------------------------------------------------------------|--------------------------------------|
 |--------------------------------------------------------------------------|--------------------------------------|

|
 
 | PM------------------------| PM--------------------------------------------|

| S S E E E Q S S E S S E E E S S E Q
 
 |--------------------------------------------------------------------------|--------------------------------------|
 |--------------------------------------------------------------------------|--------------------------------------|
 |-------------------------------------5------------------------------------|--------------------------------------|
 |-------------------------------------4------------------------------------|------------------------------1-------|
 |--------------------------------------------------------------------------|------------------------------1-------|
 |-3----2----0-------0--------0--------------------------3----2-----0-------|--3-----2---0----0--0-3-2-0-----------|

S S S S S S S S S S S S S S S S
 
 |-24-22-19-18-19-22-19-18-19-18-17-16-15-16-17-18-|
 |-------------------------------------------------|
 |-------------------------------------------------|
 |-------------------------------------------------|
 |-------------------------------------------------|
 |-------------------------------------------------|

|
 
 | PM---------------| PM----------

| S S E E E Q S S E
 
 |-------------------------------------------------|
 |-------------------------------------------------|
 |--------------------------5----------------------|
 |--------------------------4----------------------|
 |-------------------------------------------------|
 |--3--2--0-----0-----0-----------------3--2--0----|

~~
 
 |-------6--------| |------6-------| |-------6--------|

S S S S S S S S S S S S S S S S S S Q
 
 |-19-18---17-16-------------19-18-17-16-------------------------|
 |---------------20-19-18-17-------------20-19---18-17-----------|
 |-----------------------------------------------------17-16-15--|
 |---------------------------------------------------------------|
 |---------------------------------------------------------------|
 |---------------------------------------------------------------|

|
 
 |--------------------------------------------------|

| S S E E E S S E Q
 
 |---------------------------------------------------------------|
 |---------------------------------------------------------------|
 |---------------------------------------------------------------|
 |------------------------------------------------------------1--|
 |------------------------------------------------------------1--|
 |--3----2-----0--------0--------0--------3----2-----0-----------|

[C5]  
 
 |------5------| |-------5-------| |------5------| |-----5-----|

S S S S S S S S S S S S S S S S S S S S
 
 |------------------------------------------------------15-17-18-17-15-|
 |-------------------------------------19-17-15---17-19----------------|
 |------------------15-17---19---17-15---------------------------------|
 |-19-17-16---17-19----------------------------------------------------|
 |---------------------------------------------------------------------|
 |---------------------------------------------------------------------|

|
 
 | PM------------------------------------------|

| E E S S E E E Q
 
 |---------------------------------------------------------------------|
 |---------------------------------------------------------------------|
 |-------------------------------------------------------5-------------|
 |-------------------------------------------------------5-------------|
 |-------------------------------------------------------3-------------|
 |--2-------2--------5----3----2--------2-------2----------------------|

N.C. C5 Bb5
 
 |------5------| |--------5--------| |-------5-------| |-----5-----|

S S S S S S S S S S S S S S S S S S S S
 
 |-20-18-17---18-20-18-20---22---20---18-24-22-20---22---24-18-20-22-20-18----|
 |----------------------------------------------------------------------------|
 |----------------------------------------------------------------------------|
 |----------------------------------------------------------------------------|
 |----------------------------------------------------------------------------|
 |----------------------------------------------------------------------------|

|
 
 | PM------------------------------| PM---|

| E E S S S S E S S Q
 
 |----------------------------------------------------------------------------|
 |----------------------------------------------------------------------------|
 |----------------------------------------5------------------3----------------|
 |----------------------------------------5------------------3----------------|
 |----------------------------------------3------------------1----------------|
 |--2-------2--------5----4----3----2-------------2----2----------------------|

N.C. C5
 
 |------5------| |-------5-------| |-----5------| |----5----|

S S S S S S S S S S S S S S S S S S S S
 
 |-17-15-14---15-17-15----------------------------------------------|
 |---------------------17---15---13---------------------------------|
 |----------------------------------15-13-11-9----------------------|
 |-----------------------------------------------12-10-12-10-8------|
 |-------------------------------------------------------------11-9-|
 |------------------------------------------------------------------|

|
 
 | PM-----------------------------------------|

| E E S S E E E Q
 
 |------------------------------------------------------------------|
 |------------------------------------------------------------------|
 |------------------------------------------------------5-----------|
 |------------------------------------------------------5-----------|
 |------------------------------------------------------3-----------|
 |--2-------2--------5----3----2--------2------2--------------------|

N.C. C5 B5 Bb5
 
 |----5----| |------5------| |--3--|

S S S S S S S S S S S S S S S S S S S
 
 |----------------------------------------------------10---|
 |-------------------------------------------10-11-13------|
 |-----------------------------------7-11-12---------------|
 |-10-8-6-----------------------8-10-----------------------|
 |----------9-7-9-7---5------------------------------------|
 |------------------------8---6----------------------------|

|
 
 | PM----------------------|

| E E S S S S E E Q
 
 |---------------------------------------------------------|
 |---------------------------------------------------------|
 |------------------------------5----4-----3---------------|
 |------------------------------5----4-----3---------------|
 |------------------------------3----2-----1---------------|
 |--2-----2-----5---4---3---2------------------------------|

N.C. C5
~~~~~
E +E +Q S S S S S S S S
 
 |-----------------------14----------------------|
 |-17b19==(17)-(17)r--------17-14----14----------|
 |--------------------------------17----17-16-14-|
 |-----------------------------------------------|
 |-----------------------------------------------|
 |-----------------------------------------------|

|
 
 | PM-------------------------|

| E E S S E E E Q
 
 |-----------------------------------------------|
 |-----------------------------------------------|
 |------------------------------------5----------|
 |------------------------------------5----------|
 |------------------------------------3----------|
 |--2-------2----5---3-2--2-----2----------------|

N.C. C5 Bb5
~~~~~
E +E +Q S S S S S S S S
 
 |-16b18==(16)-(16)r-------18-17-15-14----14-15-17--|
 |-------------------------------------17-----------|
 |--------------------------------------------------|
 |--------------------------------------------------|
 |--------------------------------------------------|
 |--------------------------------------------------|

|
 
 | PM-------------------| PM|

| E E S S S S E S S Q
 
 |--------------------------------------------------|
 |--------------------------------------------------|
 |--------------------------5-----------3-----------|
 |--------------------------5-----------3-----------|
 |--------------------------3-----------1-----------|
 |--2-------2----5---4-3-2--------2--2--------------|

N.C. C5
~~~~~
 
 |------6-------| |------6-------|

E +E +Q S S S S S S S S S S S S
 
 |-18b20==(18)-(18)r-----22-20-18----18-20-22-20-18----18-20-|
 |--------------------------------22----------------22-------|
 |-----------------------------------------------------------|
 |-----------------------------------------------------------|
 |-----------------------------------------------------------|
 |-----------------------------------------------------------|

|
 
 | PM----------------------------|

| E E S S E E E Q
 
 |-----------------------------------------------------------|
 |-----------------------------------------------------------|
 |------------------------------------------5----------------|
 |------------------------------------------5----------------|
 |------------------------------------------3----------------|
 |--2-------2----5---3-2--2--------2-------------------------|

Synth Solo II
N.C. C5 B5 Bb5 N.C.
~~~~~ ~~
E +E +Q E +Q a +E Q +E +E H
 
 |-22b24==(22)-(22)r-------24b26==(24)---(24)r(24)-||-24-----(24)-(24)\-----------|
 |-------------------------------------------------||-----------------------------|
 |-------------------------------------------------||-----------------------------|
 |-------------------------------------------------||-----------------------------|
 |-------------------------------------------------||-----------------------------|
 |-------------------------------------------------||-----------------------------|

|
 
 | PM-------------------| PM---------| PM--|

| E E S S S S E E Q S S E E E Q S S E
 
 |-------------------------------------------------||-----------------------------|
 |-------------------------------------------------||-----------------------------|
 |--------------------------5-------4--3-----------||-------------------5---------|
 |--------------------------5-------4--3-----------||-------------------4---------|
 |--------------------------3-------2--1-----------||-----------------------------|
 |--2-------2----5---4-3-2-------------------------||--3-2-0---0----0------3-2-0--|

Gtr II
 
 PM------------| PM------| PM--------------------|

S S E E E S S E Q S S E E E Q S S E S S E E E S S E Q 3x
 
 |--------------------||---------------------|----------------------||
 |--------------------||o--------------------|---------------------o||
 |--------------------||------------5--------|----------------------||
 |-----------------1--||------------4--------|-----------------1----||
 |-----------------1--||o--------------------|-----------------1---o||
 |-3-2-0-0-0-3-2-0----||--3-2-0-0-0----3-2-0-|-3-2-0-0-0-3-2-0------||

Guitar Solo II
N.C. C5
Gtr III
 
 |------5------| |-------6--------| |------5------| |--3--|

S S S S S S S S S S S S S S S S S S S E
 
 |-------10---14p10-14p10---------------------14S==18----------------|
 |----11--------------------11-------------15---------19-------------|
 |-11--------------------------11-------15---------------19S15-------|
 |--------------------------------12---------------------------16----|
 |-----------------------------------13---------------------------17-|
 |-------------------------------------------------------------------|

|
| Gtr II
 
 | PM-------------------------------------------|

| E E S S E E E Q
 
 |-------------------------------------------------------------------|
 |-------------------------------------------------------------------|
 |--------------------------------------------------------5----------|
 |--------------------------------------------------------5----------|
 |--------------------------------------------------------3----------|
 |--2-------2--------5----3-----2--------2-------2-------------------|

N.C. C5 Bb5
 
 |------5------| |--------6---------| |-------5-------| |-----5-----|

S S S S S S S S S S S S S S S S S S S S S
 
 |-------14---18p14-18p14-----------------------18---22p==18----------------|
 |----15--------------------15---------------19--------------19-------------|
 |-15--------------------------15---------19--------------------19S11-------|
 |--------------------------------16----------------------------------12----|
 |-------------------------------------17--------------------------------13-|
 |--------------------------------------------------------------------------|

|
 
 | PM-------------------------------| PM---|

| E E S S S S E S S Q
 
 |--------------------------------------------------------------------------|
 |--------------------------------------------------------------------------|
 |-----------------------------------------5------------------3-------------|
 |-----------------------------------------5------------------3-------------|
 |-----------------------------------------3------------------1-------------|
 |--2-------2--------5----4-----3----2-------------2----2-------------------|

N.C. C5
 
 |------5------| |-------5-------| |------6-------| |------6-------|

S S S S S S S S S S S S S S S S S S S S S S
 
 |-------18---22p18-22p18--------------------14-18p14-18p14----------------|
 |----19--------------------19------------15----------------15-------------|
 |-19----------------------------19----15----------------------15----------|
 |----------------------------------20----------------------------16----16-|
 |-------------------------------------------------------------------17----|
 |-------------------------------------------------------------------------|

|
 
 | PM------------------------------------------|

| E E S S E E E Q
 
 |-------------------------------------------------------------------------|
 |-------------------------------------------------------------------------|
 |--------------------------------------------------------5----------------|
 |--------------------------------------------------------5----------------|
 |--------------------------------------------------------3----------------|
 |--2-------2--------5----3----2--------2--------2-------------------------|

N.C. C5 B5 Bb5
 
 |------5------| |--------5--------| |------6-------| |------6-------|

S S S S S S S S S S S S S S S S S S S S S S
 
 |-------14---18p14-18p14----------------------10-14p10-14p10------------------|
 |----15--------------------15--------------11----------------11---------------|
 |-15----------------------------15------11----------------------11------------|
 |------------------------------------16----------------------------12----12---|
 |---------------------------------------------------------------------13------|
 |-----------------------------------------------------------------------------|

|
 
 | PM------------------------------|

| E E S S S S E E Q
 
 |-----------------------------------------------------------------------------|
 |-----------------------------------------------------------------------------|
 |----------------------------------------5--------4--------3------------------|
 |----------------------------------------5--------4--------3------------------|
 |----------------------------------------3--------2--------1------------------|
 |--2-------2--------5----4----3----2------------------------------------------|

N.C. C5
 
 |------6------| |-----6------| |-----6-----| |------6-------|

S S S S S S S S S S S S S S S S S S S S S S S S
 
 |-----------------------------------------------------------------|
 |---------------------------------8-10-8-7-8-10-13-11-10-11-13-11-|
 |-----------------------------------------------------------------|
 |------------------8-7---8-10-8-7---------------------------------|
 |-10-12-10-9-10-12------------------------------------------------|
 |-----------------------------------------------------------------|

|
 
 | PM----------------------------

Important: The song above is NOT stored on the Chordie server. The original song is hosted at www.guitaretab.com. Chordie works as a search engine and provides on-the-fly formatting. Chordie does not index songs against artists'/composers' will. To remove this song please click here.

Text color:
Chord color:
Chord grids: 
Font size:    
Page size: 

A5 Amadd9 B5 C C5 D5 D5/F# Dadd4 Dm E E/G# E5 E5/B Emadd9 F#5 Fadd6
Rate #1 of 1 versions

Login - add to songbook

SHARE PAGE  




You need to log in to post comments